Song name
# A B C D E F G H I J K L M N O P Q R S T U V W X Y Z

Thornley - This Is Where My Heart Is tab

This is Where My Heart Is
Thornley


Tuning: Open G - 1/2 step down (D G D G B d)

intro
d|-------------------------------------------------|
B|-------------------------------------------------|
G|--------------0-------------0-------------0------|
D|----0---0---0-----0---0---0-----0---0---0--------|
G|--0---0---0-----0---0---0-----0---0---0----------|
D|-------------------------------------------------|

verse pt 1
d|------------2-2-2-2-2--0-0-0-0-0--0-0-0-0-----0--|
B|------------0-0-0-0-0--1-1-1-1-1--0-0-0-0-----0--|
G|-4-5-7-4-0--0-0-0-0-0--0-0-0-0-0--4-4-4-4h5p4-4--|
D|------------2-2-2-2-2--2-2-2-2-2--0-0-0-0-----0--|
G|-------------------------------------------------|
D|------------2-2-2-2-2----------------------------|

verse pt 2
d|--------------------2-2-2-2--0-0-0-0--0-0-0-0-----0---|
B|--------------------0-0-0-0--1-1-1-1--0-0-0-0-----0---|
G|-------0-------0----0-0-0-0--0-0-0-0--4-4-4-4h5p4-4---|
D|-----0---0---0---0--2-2-2-2--2-2-2-2--0-0-0-0-----0---|
G|------------------------------------------------------|
D|---5-------4--------2-2-2-2---------------------------|

d|-------------2-2-2--0-0-0-----------------------|
B|-------------0-0-0--3-3-3-----------------------|
G|-------------0-0-0--2-2-2--5-7p5--7p5-7p5-------|
D|---5-7-5-4-2-2-2-2--0-0-0--5-7p5--7p5-7p5-------|
G|--------------------2-2-2--5-7p5--7p5-7p5-------|
D|-------------2-2-2------------------------------|

chorus
d|------------------2-2-2-2--0-0-0-0-----|
B|---0-0-0-0--------0-0-0-0--1-1-1-1-----|
G|---0-0-0-0-4-2-0--0-0-0-0--0-0-0-0-----|
D|---0-0-0-0--------2-2-2-2--2-2-2-2-----|
G|---0-0-0-0-----------------------------|
D|------------------2-2-2-2--------------|

after chorus riff/solo backing             ending on a
d|------------------------------------------|-------|
B|------------------------------------------|---0---|
G|--0-2-0-0-0-2-0-0-5---0-2-0-0-0-2-0-2-----|---0---|
D|--0-2-0-0-0-2-0-0-5---0-2-0-0-0-2-0-2-----|---0---|
G|--0-2-0-0-0-2-0-0-5---0-2-0-0-0-2-0-2-4---|---0---|
D|--------------------------------------2---|-------|
same riff as above, but slightly different voicing
d|------------------0------------------------------|
B|------------------1------------------------------|
G|--0-2-0-0-0-2-0-0-0---0-2-0-0-0-2-0-2------------|
D|--0-2-0-0-0-2-0-0-2---0-2-0-0-0-2-0-2------------|
G|--0-2-0-0-0-2-0-0-----0-2-0-0-0-2-0-2-4----------|
D|--------------------------------------2----------|



| /  slide up
| \  slide down
| h  hammer-on
| p  pull-off
| ~  vibrato
| +  harmonic
| x  Mute note
=========================================================================
Tap to rate this tab
 
# A B C D E F G H I J K L M N O P Q R S T U V W X Y Z