Song name
# A B C D E F G H I J K L M N O P Q R S T U V W X Y Z

Thornley - Be There For Me tab

Be There For Me
Thornley

tabbed by *sweet_inc*


when listening to this song, i can hear at a minimum, 6 different guitars.
the acoustic at beginning, and then doubled later at second interlude
the first overdriven guitar
first solo guitar (single coil pickup, clean)
distorted, heavy guitar
second solo guitar (dirty)

this is just for the rythym guitars...no leads in this tab...

guitar 1 - acoustic guitar - tuning Standard, 1/2 step down
guitar 2 - overdrive guitar - open G, 1/2 step down (D G D G B d)
guitar 3 - distorted guitar - open G with a dropped C, down 1/2 step (C G D G B d)


guitar 1 parts

intro/ recurring riff
e|---0-0-0-0--0----0-0-0-0-0-----------|
B|---1-1-1-1--1----1-1-1-1-1-----------|
G|---0-0-0-0--0----0-0-0-0-0-----------|
D|---2-2-2-2--0----2-2-2-2-0-----------|
A|---3-3-3-3--2----3-3-3-3-2-----------|
E|-------------------------------------|

verse
e|--0-0-0-0-0--0-0-0-0-0--1-1-1-1-1--0-0-0-0-0-0---------|
B|--1-1-1-1-1--0-0-0-0-0--1-1-1-1-1--1-1-1-1-1-1---------|
G|--0-0-0-0-0--1-1-1-1-1--2-2-2-2-2--0-0-0-0-0-0---------|
D|--2-2-2-2-2--2-2-2-2-2--3-3-3-3-3--2-2-2-2-2-0---------|
A|--3-3-3-3-3--2-2-2-2-2--3-3-3-3-3--3-3-3-3-3-2---------|
E|-------------0-0-0-0-0---------------------------------|

pre-chorus
e|--0-0-0-0-0-0-1-1-1-2-2-2-3-3-3-4-4-4--------|
B|--2-2-2-0-0-0-1-1-1-2-2-2-3-3-3-4-4-4--------|
G|--2-2-2-1-1-1-2-2-2-3-3-3-4-4-4-5-5-5--------|
D|--2-2-2-2-2-2-3-3-3-4-4-4-5-5-5-6-6-6--------|
A|--0-0-0-2-2-2-3-3-3-4-4-4-5-5-5-6-6-6--------|
E|--------0-0-0-1-1-1-2-2-2-3-3-3-4-4-4--------|

chorus
e|---0---3---0---1---2---0---3---0---1---1----------|
B|---2---3---1---1---3---2---3---1---1---1----------|
G|---2---0---0---2---2---2---0---0---2---2----------|
D|---2---0---2---3---0---2---0---2---3---3----------|
A|---0---2---3---3-------0---2---3---3---3----------|
E|-------3-------------------3----------------------|

interlude
e|--0-0-0-0-0-0-0-0-0--1-1-1-1--3-----|
B|--2-2-2-1-1-1-1-1-1--1-1-1-1--3-----|
G|--2-2-2-0-0-0-0-0-0--2-2-2-2--0-----|
D|--2-2-2-0-0-0-2-2-2--3-3-3-3--0-----|
A|--0-0-0-2-2-2-3-3-3--3-3-3-3--2-----|
E|------------------------------3-----|

second interlude follows chords, but in appregio form

ending on
e|---0----|
B|---1----|
G|---0----|
D|---2----|
A|---3----|
E|--------|


guitar 2 parts
(guitar two intros at first chorus)


recurring riff
d|-----------------------------------|
B|-----------------------------------|
G|---5-5-5-5--4----5-5-5-5--4--------|
D|---5-5-5-5--4----5-5-5-5--4--------|
G|---5-5-5-5--4----5-5-5-5--4--------|
D|-----------------------------------|

verse
d|----------------------------------------------------|
B|----------------------------------------------------|
G|--5-5-5-5-5------------------------5-5-5-5-5--4-----|
D|--5-5-5-5-5------------------------5-5-5-5-5--4-----|
G|--5-5-5-5-5--4-4-4-4-4--5-5-5-5-5--5-5-5-5-5--4-----|
D|-------------2-2-2-2-2--3-3-3-3-3-------------------|

chorus type 1
d|-------5---0---2---0-------0---0---2---2------|
B|---2---0---1---1---2---2---0---1---1---1------|
G|---2---0---0---2---3---2---0---0---2---2------|
D|---2---0---2---3---0---2---0---2---3---3------|
G|---2-------0-----------2-------0--------------|
D|-------5-------------------5------------------|

chorus type 2
d|----------------------------------------------|
B|---2---0---5---10--7---2---0---5---10---------|
G|---2---0---5---10--7---2---0---5---10---------|
D|---2---0---5---10--7---2---0---5---10---------|
G|---2---0---5---10--7---2---0---5---10---------|
D|----------------------------------------------|

interlude
d|----------------------------------------|
B|--2-2-2-4-4-4-5-5-5-10-10-10------------|
G|--2-2-2-4-4-4-5-5-5-10-10-10------------|
D|--2-2-2-4-4-4-5-5-5-10-10-10------------|
G|--2-2-2-4-4-4-5-5-5-10-10-10-7-7-7------|
D|-----------------------------5-5-5------|

ending on
e|--------|
B|---5----|
G|---5----|
D|---5----|
G|---5----|
D|--------|


guitar 3 parts
(guitar 3 intros after first interlude)

chorus
d|------------------------------------------|
B|---2---0---------------2---0--------------|
G|---2---0---------------2---0--------------|
D|---2---0---------------2---0--------------|
G|---2---0---0---5---2---2---0---0---0------|
C|-----------0---5---2-----------0---0------|

interlude
d|----------------------------------------|
B|--2-2-2-4-4-4-5-5-5-10-10-10------------|
G|--2-2-2-4-4-4-5-5-5-10-10-10------------|
D|--2-2-2-4-4-4-5-5-5-10-10-10------------|
G|--2-2-2-4-4-4-5-5-5-10-10-10-7-7-7------|
D|-----------------------------7-7-7------|

ending on
d|--------|
B|--------|
G|--------|
D|--------|
G|---0----|
C|---0----|



| /  slide up
| \  slide down
| h  hammer-on
| p  pull-off
| ~  vibrato
| +  harmonic
| x  Mute note
=============================================================================
Tap to rate this tab
 
# A B C D E F G H I J K L M N O P Q R S T U V W X Y Z