Song name
# A B C D E F G H I J K L M N O P Q R S T U V W X Y Z

Thornley - Easy Comes tab

Easy Comes
Thornley
Come Again (2004)

Easy Comes:  written by Ian Thornley

GTR I - Drop B Tuning (c#,G#,E,B,F#,B)
GTR II - Drop B Tuning (c#,G#,E,B,F#,B)

Intro

   GTR I (Heavy Distortion)
c#|-------------------------------------------------|
G#|-------------------------------------------------|
 E|-------------------------------------------------|
 B|-------------------------------------------------|
F#|-------------------------------------------------|
 B|--0h10h12--0h12h13--0h10h12--0h12h13--0h10h12----|
  |
  |GTR II (Heavy Distortion)
c#|-------------------------------------------------|
G#|-------------------------------------------------|
 E|-------------------------------------------------|
 B|-------------------------------------------------|
F#|--0--0-------------------------------------------|
 B|--0--0-------------------------------------------|
     .  .

   GTR I
c#|-------------------------------------------------|
G#|-------------------------------------------------|
 E|-------------------------------------------------|
 B|-------------------------------------------------|
F#|-------------------------------------------------|
 B|--0h10h12--0h12h13--0--0--5p-3--5/-6\-5p-3p-0----|
  |
  |GTR II
c#|-------------------------------------------------|
G#|-------------------------------------------------|
 E|-------------------------------------------------|
 B|-------------------------------------------------|
F#|--0-----0----------------------------------------|
 B|--0-----0----------------------------------------|
     .     .

   GTR I 
c#|-------------------------------------------------|
G#|-------------------------------------------------|
 E|-------------------------------------------------|
 B|-------------------------------------------------|
F#|-------------------------------------------------|
 B|--0h10h12--0h12h13--0h10h12--0h12h13--0h10h12----|
  |
  |GTR II 
c#|-------------------------------------------------|
G#|-------------------------------------------------|
 E|-------------------------------------------------|
 B|-------------------------------------------------|
F#|--0--0-------------------------------------------|
 B|--0--0-------------------------------------------|
     .  .

   GTR I
c#|-------------------------------------------------|
G#|-------------------------------------------------|
 E|-------------------------------------------------|
 B|-------------------------------------------------|
F#|-------------------------------------------------|
 B|--0h10h12--0h12h13--0--0--5p-3--5/-6\-5p-3p-0----|
  |
  |GTR II
c#|-------------------------------------------------|
G#|-------------------------------------------------|
 E|-------------------------------------------------|
 B|-------------------------------------------------|
F#|--0-----0----------------------------------------|
 B|--0-----0----------------------------------------|
     .     .

Verse

   GTR I
c#|-------------------------------------------------|
G#|-------------------------------------------------|
 E|-------------------------------------------------|
 B|-------------------------------------------------|
F#|-------------------------------------------------|
 B|--0h10h12--0h12h13--0h10h12--0h12h13--0h10h12----|
  |
  |GTR II
c#|-------------------------------------------------|
G#|-------------------------------------------------|
 E|-------------------------------------------------|
 B|-------------------------------------------------|
F#|-------------------------------------------------|
 B|--0h10h12--0h12h13--0h10h12--0h12h13--0h10h12----|

   GTR I
c#|-------------------------------------------------|
G#|-------------------------------------------------|
 E|-------------------------------------------------|
 B|-------------------------------------------------|
F#|-------------------------------------------------|
 B|--0h10h12--0h12h13--0--0--5p-3--5/-6\-5p-3p-0----|
  |
  |GTR II
c#|-------------------------------------------------|
G#|-------------------------------------------------|
 E|-------------------------------------------------|
 B|-------------------------------------------------|
F#|-------------------------------------------------|
 B|--0h10h12--0h12h13--0--0--5p-3--5/-6\-5p-3p-0----|

   GTR I
c#|-------------------------------------------------|
G#|-------------------------------------------------|
 E|-------------------------------------------------|
 B|-------------------------------------------------|
F#|-------------------------------------------------|
 B|--0h10h12--0h12h13--0h10h12--0h12h13--0h10h12----|
  |
  |GTR II
c#|-------------------------------------------------|
G#|-------------------------------------------------|
 E|-------------------------------------------------|
 B|-------------------------------------------------|
F#|-------------------------------------------------|
 B|--0h10h12--0h12h13--0h10h12--0h12h13--0h10h12----|

   GTR I
c#|-------------------------------------------------|
G#|-------------------------------------------------|
 E|-------------------------------------------------|
 B|-------------------------------------------------|
F#|-------------------------------------------------|
 B|--0h10h12--0h12h13--0--0--5p-3--5/-6\-5p-3p-0----|
  |
  |GTR II
c#|-------------------------------------------------|
G#|-------------------------------------------------|
 E|-------------------------------------------------|
 B|-------------------------------------------------|
F#|-------------------------------------------------|
 B|--0h10h12--0h12h13--0--0--5p-3--5/-6\-5p-3p-0----|

   GTR I
c#|-------------------------------------------------|
G#|-------------------------------------------------|
 E|-------------------------------------------------|
 B|-------------------------------------------------|
F#|-------------------------------------------------|
 B|--0h10h12--0h12h13--0h10h12--0h12h13--0h10h12----|
  |
  |GTR II
c#|-------------------------------------------------|
G#|-------------------------------------------------|
 E|-------------------------------------------------|
 B|-------------------------------------------------|
F#|-------------------------------------------------|
 B|--0h10h12--0h12h13--0h10h12--0h12h13--0h10h12----|

   GTR I
c#|-------------------------------------------------|
G#|-------------------------------------------------|
 E|-------------------------------------------------|
 B|-------------------------------------------------|
F#|-------------------------------------------------|
 B|--0h10h12--0h12h13--0--0--5p-3--5/-6\-5p-3p-0----|
  |
  |GTR II
c#|-------------------------------------------------|
G#|-------------------------------------------------|
 E|-------------------------------------------------|
 B|-------------------------------------------------|
F#|-------------------------------------------------|
 B|--0h10h12--0h12h13--0--0--5p-3--5/-6\-5p-3p-0----|

   GTR I
c#|-------------------------------------------------|
G#|-------------------------------------------------|
 E|-------------------------------------------------|
 B|-------------------------------------------------|
F#|-------------------------------------------------|
 B|--0h10h12--0h12h13--0h10h12--0h12h13--0h10h12----|
  |
  |GTR II
c#|-------------------------------------------------|
G#|-------------------------------------------------|
 E|-------------------------------------------------|
 B|-------------------------------------------------|
F#|-------------------------------------------------|
 B|--0h10h12--0h12h13--0h10h12--0h12h13--0h10h12----|

   GTR I
c#|-------------------------------------------------|
G#|-------------------------------------------------|
 E|-------------------------------------------------|
 B|-------------------------------------------------|
F#|-------------------------------------------------|
 B|--0h10h12--0h12h13--0--0--5p-3--5/-6\-5p-3p-0----|
  |
  |GTR II
c#|-------------------------------------------------|
G#|-------------------------------------------------|
 E|-------------------------------------------------|
 B|-------------------------------------------------|
F#|-------------------------------------------------|
 B|--0h10h12--0h12h13--0--0--5p-3--5/-6\-5p-3p-0----|

   GTR I
c#|-------------------------------------------------|
G#|-------------------------------------------------|
 E|-------------------------------------------------|
 B|-------------------------------------------------|
F#|-------------------------------------------------|
 B|--0h10h12--0h12h13--0h10h12--0h12h13--0h10h12----|
  |
  |GTR II
c#|-------------------------------------------------|
G#|-------------------------------------------------|
 E|-------------------------------------------------|
 B|-------------------------------------------------|
F#|-------------------------------------------------|
 B|--0h10h12--0h12h13--0h10h12--0h12h13--0h10h12----|

   GTR I
c#|-------------------------------------------------|
G#|-------------------------------------------------|
 E|-------------------------------------------------|
 B|-------------------------------------------------|
F#|-------------------------------------------------|
 B|--0h10h12--0h12h13--0--0--5p-3--5/-6\-5p-3p-0----|
  |
  |GTR II
c#|-------------------------------------------------|
G#|-------------------------------------------------|
 E|-------------------------------------------------|
 B|-------------------------------------------------|
F#|-------------------------------------------------|
 B|--0h10h12--0h12h13--0--0--5p-3--5/-6\-5p-3p-0----|

   GTR I
c#|-------------------------------------------------|
G#|-------------------------------------------------|
 E|-------------------------------------------------|
 B|-------------------------------------------------|
F#|-------------------------------------------------|
 B|--0h10h12--0h12h13--0h10h12--0h12h13--0h10h12----|
  |
  |GTR II
c#|-------------------------------------------------|
G#|-------------------------------------------------|
 E|-------------------------------------------------|
 B|-------------------------------------------------|
F#|-------------------------------------------------|
 B|--0h10h12--0h12h13--0h10h12--0h12h13--0h10h12----|

   GTR I
c#|-------------------------------------------------|
G#|-------------------------------------------------|
 E|-------------------------------------------------|
 B|-------------------------------------------------|
F#|-------------------------------------------------|
 B|--0h10h12--0h12h13--0--0--5p-3--5/-6\-5p-3p-0----|
  |
  |GTR II
c#|-------------------------------------------------|
G#|-------------------------------------------------|
 E|-------------------------------------------------|
 B|-------------------------------------------------|
F#|-------------------------------------------------|
 B|--0h10h12--0h12h13--0--0--5p-3--5/-6\-5p-3p-0----|

Verse 2

   GTR I
c#|-------------------------------------------------|
G#|-------------------------------------------------|
 E|-------------------------------------------------|
 B|-------------------------------------------------|
F#|--------------------------------------------9----|
 B|--0h10h12--0h12h13--0h10h12--0h12h13--0h10-------|
  |
  |GTR II
c#|-------------------------------------------------|
G#|-------------------------------------------------|
 E|-------------------------------------------------|
 B|-------------------------------------------------|
F#|--------------------------------------------9----|
 B|--0h10h12--0h12h13--0h10h12--0h12h13--0h10-------|

   GTR I
c#|-------------------------------------------------|
G#|-------------------------------------------------|
 E|-------------------------------------------------|
 B|-------------------------------------------------|
F#|-------------------------------------------------|
 B|--0h10h12--0h12h13--0--0--5p-3--5/-6\-5p-3p-0----|
  |
  |GTR II
c#|-------------------------------------------------|
G#|-------------------------------------------------|
 E|-------------------------------------------------|
 B|-------------------------------------------------|
F#|-------------------------------------------------|
 B|--0h10h12--0h12h13--0--0--5p-3--5/-6\-5p-3p-0----|

   GTR I
c#|-------------------------------------------------|
G#|-------------------------------------------------|
 E|-------------------------------------------------|
 B|-------------------------------------------------|
F#|--------------------------------------------9----|
 B|--0h10h12--0h12h13--0h10h12--0h12h13--0h10-------|
  |
  |GTR II
c#|-------------------------------------------------|
G#|-------------------------------------------------|
 E|-------------------------------------------------|
 B|-------------------------------------------------|
F#|--------------------------------------------9----|
 B|--0h10h12--0h12h13--0h10h12--0h12h13--0h10-------|

   GTR I
c#|-------------------------------------------------|
G#|-------------------------------------------------|
 E|-------------------------------------------------|
 B|-------------------------------------------------|
F#|-------------------------------------------------|
 B|--0h10h12--0h12h13--0--0--5p-3--5/-6\-5p-3p-0----|
  |
  |GTR II
c#|-------------------------------------------------|
G#|-------------------------------------------------|
 E|-------------------------------------------------|
 B|-------------------------------------------------|
F#|-------------------------------------------------|
 B|--0h10h12--0h12h13--0--0--5p-3--5/-6\-5p-3p-0----|

   GTR I
c#|-------------------------------------------------|
G#|-------------------------------------------------|
 E|-------------------------------------------------|
 B|-------------------------------------------------|
F#|--------------------------------------------9----|
 B|--0h10h12--0h12h13--0h10h12--0h12h13--0h10-------|
  |
  |GTR II
c#|-------------------------------------------------|
G#|-------------------------------------------------|
 E|-------------------------------------------------|
 B|-------------------------------------------------|
F#|--------------------------------------------9----|
 B|--0h10h12--0h12h13--0h10h12--0h12h13--0h10-------|

   GTR I
c#|-------------------------------------------------|
G#|-------------------------------------------------|
 E|-------------------------------------------------|
 B|-------------------------------------------------|
F#|--------------------------------------------9----|
 B|--0h10h12--0h12h13--0h10h12--0h12h13--0h10-------|
  |
  |GTR II
c#|-------------------------------------------------|
G#|-------------------------------------------------|
 E|-------------------------------------------------|
 B|-------------------------------------------------|
F#|--------------------------------------------9----|
 B|--0h10h12--0h12h13--0h10h12--0h12h13--0h10-------|

   GTR I
c#|-------------------------------------------------|
G#|-------------------------------------------------|
 E|-------------------------------------------------|
 B|-------------------------------------------------|
F#|--------------------------------------------9----|
 B|--0h10h12--0h12h13--0h10h12--0h12h13--0h10-------|
  |
  |GTR II
c#|-------------------------------------------------|
G#|-------------------------------------------------|
 E|-------------------------------------------------|
 B|-------------------------------------------------|
F#|--------------------------------------------9----|
 B|--0h10h12--0h12h13--0h10h12--0h12h13--0h10-------|

   GTR I
c#|-------------------------------------------------|
G#|-------------------------------------------------|
 E|-------------------------------------------------|
 B|-------------------------------------------------|
F#|-------------------------------------------------|
 B|--0h10h12--0h12h13--0--0--5p-3--5/-6\-5p-3p-0----|
  |
  |GTR II
c#|-------------------------------------------------|
G#|-------------------------------------------------|
 E|-------------------------------------------------|
 B|-------------------------------------------------|
F#|-------------------------------------------------|
 B|--0h10h12--0h12h13--0--0--5p-3--5/-6\-5p-3p-0----|

Pre Chorus

   GTR I
c#|-------------------------------------------------|
G#|-------------------------------------------------|
 E|-------------------------------------------------|
 B|--8--8--8--8--8--8--8--8-10-10-10-10-10-10-10-10-|
F#|--8--8--8--8--8--8--8--8-10-10-10-10-10-10-10-10-|
 B|--8--8--8--8--8--8--8--8-10-10-10-10-10-10-10-10-|
  |
  |GTR II
c#|-------------------------------------------------|
G#|-------------------------------------------------|
 E|-------------------------------------------------|
 B|--8--8--8--8--8--8--8--8-10-10-10-10-10-10-10-10-|
F#|--8--8--8--8--8--8--8--8-10-10-10-10-10-10-10-10-|
 B|--8--8--8--8--8--8--8--8-10-10-10-10-10-10-10-10-|

   GTR I
c#|-------------------------------------------------|
G#|-------------------------------------------------|
 E|-------------------------------------------------|
 B|--5--5--x--3--5--5--x--3--5--5--x--3--5----------|
F#|--5--5--x--3--5--5--x--3--5--5--x--3--5--6--5--3-|
 B|--5--5--x--3--5--5--x--3--5--5--x--3--5--6--5--3-|
  |                                         .  .  .
  |GTR II
c#|-------------------------------------------------|
G#|-------------------------------------------------|
 E|-------------------------------------------------|
 B|--5--5--x--3--5--5--x--3--5--5--x--3--5----------|
F#|--5--5--x--3--5--5--x--3--5--5--x--3--5--6--5--3-|
 B|--5--5--x--3--5--5--x--3--5--5--x--3--5--6--5--3-|
                                            .  .  .

Chorus

   GTR I
c#|-------------------------------------------------|
G#|-------------------------------------------------|
 E|-------------------------------------------------|
 B|--0--0--x--3--0--0--x--3--0--0--x--3--0--6--5--3-|
F#|--0--0--x--3--0--0--x--3--0--0--x--3--0--6--5--3-|
 B|--0--0--x--3--0--0--x--3--0--0--x--3--0--6--5--3-|
  |
  |GTR II
c#|-------------------------------------------------|
G#|-------------------------------------------------|
 E|-------------------------------------------------|
 B|--0--0--x--3--0--0--x--3--0--0--x--3--0--6--5--3-|
F#|--0--0--x--3--0--0--x--3--0--0--x--3--0--6--5--3-|
 B|--0--0--x--3--0--0--x--3--0--0--x--3--0--6--5--3-|

   GTR I
c#|-------------------------------------------------|
G#|-------------------------------------------------|
 E|-------------------------------------------------|
 B|--0--0--x--3--0--0--x--3--0--0--x--3--0----------|
F#|--0--0--x--3--0--0--x--3--0--0--x--3--0--6--5--3-|
 B|--0--0--x--3--0--0--x--3--0--0--x--3--0--6--5--3-|
  |                                         .  .  .
  |GTR II
c#|-------------------------------------------------|
G#|-------------------------------------------------|
 E|-------------------------------------------------|
 B|--0--0--x--3--0--0--x--3--0--0--x--3--0----------|
F#|--0--0--x--3--0--0--x--3--0--0--x--3--0--6--5--3-|
 B|--0--0--x--3--0--0--x--3--0--0--x--3--0--6--5--3-|
                                            .  .  .

   GTR I
c#|-------------------------------------------------|
G#|-------------------------------------------------|
 E|-------------------------------------------------|
 B|--0--0--x--3--0--0--x--3--0--0--x--3--0--6--5--3-|
F#|--0--0--x--3--0--0--x--3--0--0--x--3--0--6--5--3-|
 B|--0--0--x--3--0--0--x--3--0--0--x--3--0--6--5--3-|
  |
  |GTR II
c#|-------------------------------------------------|
G#|-------------------------------------------------|
 E|-------------------------------------------------|
 B|--0--0--x--3--0--0--x--3--0--0--x--3--0--6--5--3-|
F#|--0--0--x--3--0--0--x--3--0--0--x--3--0--6--5--3-|
 B|--0--0--x--3--0--0--x--3--0--0--x--3--0--6--5--3-|

   GTR I
c#|-------------------------------------------------|
G#|-------------------------------------------------|
 E|-------------------------------------------------|
 B|--0--0--x--3--0--0--x--3--0--0--x--3--0----------|
F#|--0--0--x--3--0--0--x--3--0--0--x--3--0--6--5--3-|
 B|--0--0--x--3--0--0--x--3--0--0--x--3--0--6--5--3-|
  |                                         .  .  .
  |GTR II
c#|-------------------------------------------------|
G#|-------------------------------------------------|
 E|-------------------------------------------------|
 B|--0--0--x--3--0--0--x--3--0--0--x--3--0----------|
F#|--0--0--x--3--0--0--x--3--0--0--x--3--0--6--5--3-|
 B|--0--0--x--3--0--0--x--3--0--0--x--3--0--6--5--3-|
                                            .  .  .

Intro

   GTR I 
c#|-------------------------------------------------|
G#|-------------------------------------------------|
 E|-------------------------------------------------|
 B|-------------------------------------------------|
F#|-------------------------------------------------|
 B|--0h10h12--0h12h13--0h10h12--0h12h13--0h10h12----|
  |
  |GTR II 
c#|-------------------------------------------------|
G#|-------------------------------------------------|
 E|-------------------------------------------------|
 B|-------------------------------------------------|
F#|--0--0-------------------------------------------|
 B|--0--0-------------------------------------------|
     .  .

   GTR I
c#|-------------------------------------------------|
G#|-------------------------------------------------|
 E|-------------------------------------------------|
 B|-------------------------------------------------|
F#|-------------------------------------------------|
 B|--0h10h12--0h12h13--0--0--5p-3--5/-6\-5p-3p-0----|
  |
  |GTR II
c#|-------------------------------------------------|
G#|-------------------------------------------------|
 E|-------------------------------------------------|
 B|-------------------------------------------------|
F#|--0-----0----------------------------------------|
 B|--0-----0----------------------------------------|
     .     .

   GTR I 
c#|-------------------------------------------------|
G#|-------------------------------------------------|
 E|-------------------------------------------------|
 B|-------------------------------------------------|
F#|-------------------------------------------------|
 B|--0h10h12--0h12h13--0h10h12--0h12h13--0h10h12----|
  |
  |GTR II 
c#|-------------------------------------------------|
G#|-------------------------------------------------|
 E|-------------------------------------------------|
 B|-------------------------------------------------|
F#|--0--0-------------------------------------------|
 B|--0--0-------------------------------------------|
     .  .

   GTR I
c#|-------------------------------------------------|
G#|-------------------------------------------------|
 E|-------------------------------------------------|
 B|-------------------------------------------------|
F#|-------------------------------------------------|
 B|--0h10h12--0h12h13--0--0--5p-3--5/-6\-5p-3p-0----|
  |
  |GTR II
c#|-------------------------------------------------|
G#|-------------------------------------------------|
 E|-------------------------------------------------|
 B|-------------------------------------------------|
F#|--0-----0----------------------------------------|
 B|--0-----0----------------------------------------|
     .     .

Verse 3

   GTR I
c#|-------------------------------------------------|
G#|-------------------------------------------------|
 E|-------------------------------------------------|
 B|-------------------------------------------------|
F#|-------------------------------------------------|
 B|--0h10h12--0h12h13--0h10h12--0h12h13--0h10h12----|
  |
  |GTR II
c#|-------------------------------------------------|
G#|-------------------------------------------------|
 E|-------------------------------------------------|
 B|-------------------------------------------------|
F#|-------------------------------------------------|
 B|--0h10h12--0h12h13--0h10h12--0h12h13--0h10h12----|

   GTR I
c#|-------------------------------------------------|
G#|-------------------------------------------------|
 E|-------------------------------------------------|
 B|-------------------------------------------------|
F#|-------------------------------------------------|
 B|--0h10h12--0h12h13--0--0--5p-3--5/-6\-5p-3p-0----|
  |
  |GTR II
c#|-------------------------------------------------|
G#|-------------------------------------------------|
 E|-------------------------------------------------|
 B|-------------------------------------------------|
F#|-------------------------------------------------|
 B|--0h10h12--0h12h13--0--0--5p-3--5/-6\-5p-3p-0----|

   GTR I
c#|-------------------------------------------------|
G#|-------------------------------------------------|
 E|-------------------------------------------------|
 B|-------------------------------------------------|
F#|-------------------------------------------------|
 B|--0h10h12--0h12h13--0h10h12--0h12h13--0h10h12----|
  |
  |GTR II
c#|-------------------------------------------------|
G#|-------------------------------------------------|
 E|-------------------------------------------------|
 B|-------------------------------------------------|
F#|-------------------------------------------------|
 B|--0h10h12--0h12h13--0h10h12--0h12h13--0h10h12----|

   GTR I
c#|-------------------------------------------------|
G#|-------------------------------------------------|
 E|-------------------------------------------------|
 B|-------------------------------------------------|
F#|-------------------------------------------------|
 B|--0h10h12--0h12h13--0--0--5p-3--5/-6\-5p-3p-0----|
  |
  |GTR II
c#|-------------------------------------------------|
G#|-------------------------------------------------|
 E|-------------------------------------------------|
 B|-------------------------------------------------|
F#|-------------------------------------------------|
 B|--0h10h12--0h12h13--0--0--5p-3--5/-6\-5p-3p-0----|

   GTR I
c#|-------------------------------------------------|
G#|-------------------------------------------------|
 E|-------------------------------------------------|
 B|-------------------------------------------------|
F#|-------------------------------------------------|
 B|--0h10h12--0h12h13--0h10h12--0h12h13--0h10h12----|
  |
  |GTR II
c#|-------------------------------------------------|
G#|-------------------------------------------------|
 E|-------------------------------------------------|
 B|-------------------------------------------------|
F#|-------------------------------------------------|
 B|--0h10h12--0h12h13--0h10h12--0h12h13--0h10h12----|

   GTR I
c#|-------------------------------------------------|
G#|-------------------------------------------------|
 E|-------------------------------------------------|
 B|-------------------------------------------------|
F#|-------------------------------------------------|
 B|--0h10h12--0h12h13--0--0--5p-3--5/-6\-5p-3p-0----|
  |
  |GTR II
c#|-------------------------------------------------|
G#|-------------------------------------------------|
 E|-------------------------------------------------|
 B|-------------------------------------------------|
F#|-------------------------------------------------|
 B|--0h10h12--0h12h13--0--0--5p-3--5/-6\-5p-3p-0----|

   GTR I
c#|-------------------------------------------------|
G#|-------------------------------------------------|
 E|-------------------------------------------------|
 B|-------------------------------------------------|
F#|-------------------------------------------------|
 B|--0h10h12--0h12h13--0h10h12--0h12h13--0h10h12----|
  |
  |GTR II
c#|-------------------------------------------------|
G#|-------------------------------------------------|
 E|-------------------------------------------------|
 B|-------------------------------------------------|
F#|-------------------------------------------------|
 B|--0h10h12--0h12h13--0h10h12--0h12h13--0h10h12----|

   GTR I
c#|-------------------------------------------------|
G#|-------------------------------------------------|
 E|-------------------------------------------------|
 B|-------------------------------------------------|
F#|-------------------------------------------------|
 B|--0h10h12--0h12h13--0--0--5p-3--5/-6\-5p-3p-0----|
  |
  |GTR II
c#|-------------------------------------------------|
G#|-------------------------------------------------|
 E|-------------------------------------------------|
 B|-------------------------------------------------|
F#|-------------------------------------------------|
 B|--0h10h12--0h12h13--0--0--5p-3--5/-6\-5p-3p-0----|

Verse 2

   GTR I
c#|-------------------------------------------------|
G#|-------------------------------------------------|
 E|-------------------------------------------------|
 B|-------------------------------------------------|
F#|--------------------------------------------9----|
 B|--0h10h12--0h12h13--0h10h12--0h12h13--0h10-------|
  |
  |GTR II
c#|-------------------------------------------------|
G#|-------------------------------------------------|
 E|-------------------------------------------------|
 B|-------------------------------------------------|
F#|--------------------------------------------9----|
 B|--0h10h12--0h12h13--0h10h12--0h12h13--0h10-------|

   GTR I
c#|-------------------------------------------------|
G#|-------------------------------------------------|
 E|-------------------------------------------------|
 B|-------------------------------------------------|
F#|-------------------------------------------------|
 B|--0h10h12--0h12h13--0--0--5p-3--5/-6\-5p-3p-0----|
  |
  |GTR II
c#|-------------------------------------------------|
G#|-------------------------------------------------|
 E|-------------------------------------------------|
 B|-------------------------------------------------|
F#|-------------------------------------------------|
 B|--0h10h12--0h12h13--0--0--5p-3--5/-6\-5p-3p-0----|

   GTR I
c#|-------------------------------------------------|
G#|-------------------------------------------------|
 E|-------------------------------------------------|
 B|-------------------------------------------------|
F#|--------------------------------------------9----|
 B|--0h10h12--0h12h13--0h10h12--0h12h13--0h10-------|
  |
  |GTR II
c#|-------------------------------------------------|
G#|-------------------------------------------------|
 E|-------------------------------------------------|
 B|-------------------------------------------------|
F#|--------------------------------------------9----|
 B|--0h10h12--0h12h13--0h10h12--0h12h13--0h10-------|

   GTR I
c#|-------------------------------------------------|
G#|-------------------------------------------------|
 E|-------------------------------------------------|
 B|-------------------------------------------------|
F#|-------------------------------------------------|
 B|--0h10h12--0h12h13--0--0--5p-3--5/-6\-5p-3p-0----|
  |
  |GTR II
c#|-------------------------------------------------|
G#|-------------------------------------------------|
 E|-------------------------------------------------|
 B|-------------------------------------------------|
F#|-------------------------------------------------|
 B|--0h10h12--0h12h13--0--0--5p-3--5/-6\-5p-3p-0----|

   GTR I
c#|-------------------------------------------------|
G#|-------------------------------------------------|
 E|-------------------------------------------------|
 B|-------------------------------------------------|
F#|--------------------------------------------9----|
 B|--0h10h12--0h12h13--0h10h12--0h12h13--0h10-------|
  |
  |GTR II
c#|-------------------------------------------------|
G#|-------------------------------------------------|
 E|-------------------------------------------------|
 B|-------------------------------------------------|
F#|--------------------------------------------9----|
 B|--0h10h12--0h12h13--0h10h12--0h12h13--0h10-------|

   GTR I
c#|-------------------------------------------------|
G#|-------------------------------------------------|
 E|-------------------------------------------------|
 B|-------------------------------------------------|
F#|--------------------------------------------9----|
 B|--0h10h12--0h12h13--0h10h12--0h12h13--0h10-------|
  |
  |GTR II
c#|-------------------------------------------------|
G#|-------------------------------------------------|
 E|-------------------------------------------------|
 B|-------------------------------------------------|
F#|--------------------------------------------9----|
 B|--0h10h12--0h12h13--0h10h12--0h12h13--0h10-------|

   GTR I
c#|-------------------------------------------------|
G#|-------------------------------------------------|
 E|-------------------------------------------------|
 B|-------------------------------------------------|
F#|--------------------------------------------9----|
 B|--0h10h12--0h12h13--0h10h12--0h12h13--0h10-------|
  |
  |GTR II
c#|-------------------------------------------------|
G#|-------------------------------------------------|
 E|-------------------------------------------------|
 B|-------------------------------------------------|
F#|--------------------------------------------9----|
 B|--0h10h12--0h12h13--0h10h12--0h12h13--0h10-------|

   GTR I
c#|-------------------------------------------------|
G#|-------------------------------------------------|
 E|-------------------------------------------------|
 B|-------------------------------------------------|
F#|-------------------------------------------------|
 B|--0h10h12--0h12h13--0--0--5p-3--5/-6\-5p-3p-0----|
  |
  |GTR II
c#|-------------------------------------------------|
G#|-------------------------------------------------|
 E|-------------------------------------------------|
 B|-------------------------------------------------|
F#|-------------------------------------------------|
 B|--0h10h12--0h12h13--0--0--5p-3--5/-6\-5p-3p-0----|

Pre Chorus

   GTR I
c#|-------------------------------------------------|
G#|-------------------------------------------------|
 E|-------------------------------------------------|
 B|--8--8--8--8--8--8--8--8-10-10-10-10-10-10-10-10-|
F#|--8--8--8--8--8--8--8--8-10-10-10-10-10-10-10-10-|
 B|--8--8--8--8--8--8--8--8-10-10-10-10-10-10-10-10-|
  |
  |GTR II
c#|-------------------------------------------------|
G#|-------------------------------------------------|
 E|-------------------------------------------------|
 B|--8--8--8--8--8--8--8--8-10-10-10-10-10-10-10-10-|
F#|--8--8--8--8--8--8--8--8-10-10-10-10-10-10-10-10-|
 B|--8--8--8--8--8--8--8--8-10-10-10-10-10-10-10-10-|

   GTR I
c#|-------------------------------------------------|
G#|-------------------------------------------------|
 E|-------------------------------------------------|
 B|--5--5--x--3--5--5--x--3--5--5--x--3--5----------|
F#|--5--5--x--3--5--5--x--3--5--5--x--3--5--6--5--3-|
 B|--5--5--x--3--5--5--x--3--5--5--x--3--5--6--5--3-|
  |                                         .  .  .
  |GTR II
c#|-------------------------------------------------|
G#|-------------------------------------------------|
 E|-------------------------------------------------|
 B|--5--5--x--3--5--5--x--3--5--5--x--3--5----------|
F#|--5--5--x--3--5--5--x--3--5--5--x--3--5--6--5--3-|
 B|--5--5--x--3--5--5--x--3--5--5--x--3--5--6--5--3-|
                                            .  .  .

Chorus

   GTR I
c#|-------------------------------------------------|
G#|-------------------------------------------------|
 E|-------------------------------------------------|
 B|--0--0--x--3--0--0--x--3--0--0--x--3--0--6--5--3-|
F#|--0--0--x--3--0--0--x--3--0--0--x--3--0--6--5--3-|
 B|--0--0--x--3--0--0--x--3--0--0--x--3--0--6--5--3-|
  |
  |GTR II
c#|-------------------------------------------------|
G#|-------------------------------------------------|
 E|-------------------------------------------------|
 B|--0--0--x--3--0--0--x--3--0--0--x--3--0--6--5--3-|
F#|--0--0--x--3--0--0--x--3--0--0--x--3--0--6--5--3-|
 B|--0--0--x--3--0--0--x--3--0--0--x--3--0--6--5--3-|

   GTR I
c#|-------------------------------------------------|
G#|-------------------------------------------------|
 E|-------------------------------------------------|
 B|--0--0--x--3--0--0--x--3--0--0--x--3--0----------|
F#|--0--0--x--3--0--0--x--3--0--0--x--3--0--6--5--3-|
 B|--0--0--x--3--0--0--x--3--0--0--x--3--0--6--5--3-|
  |                                         .  .  .
  |GTR II
c#|-------------------------------------------------|
G#|-------------------------------------------------|
 E|-------------------------------------------------|
 B|--0--0--x--3--0--0--x--3--0--0--x--3--0----------|
F#|--0--0--x--3--0--0--x--3--0--0--x--3--0--6--5--3-|
 B|--0--0--x--3--0--0--x--3--0--0--x--3--0--6--5--3-|
                                            .  .  .

   GTR I
c#|-------------------------------------------------|
G#|-------------------------------------------------|
 E|-------------------------------------------------|
 B|--0--0--x--3--0--0--x--3--0--0--x--3--0--6--5--3-|
F#|--0--0--x--3--0--0--x--3--0--0--x--3--0--6--5--3-|
 B|--0--0--x--3--0--0--x--3--0--0--x--3--0--6--5--3-|
  |
  |GTR II
c#|-------------------------------------------------|
G#|-------------------------------------------------|
 E|-------------------------------------------------|
 B|--0--0--x--3--0--0--x--3--0--0--x--3--0--6--5--3-|
F#|--0--0--x--3--0--0--x--3--0--0--x--3--0--6--5--3-|
 B|--0--0--x--3--0--0--x--3--0--0--x--3--0--6--5--3-|

   GTR I
c#|-------------------------------------------------|
G#|-------------------------------------------------|
 E|-------------------------------------------------|
 B|--0--0--x--3--0--0--x--3--0--0--x--3--0----------|
F#|--0--0--x--3--0--0--x--3--0--0--x--3--0--6--5--3-|
 B|--0--0--x--3--0--0--x--3--0--0--x--3--0--6--5--3-|
  |                                         .  .  .
  |GTR II
c#|-------------------------------------------------|
G#|-------------------------------------------------|
 E|-------------------------------------------------|
 B|--0--0--x--3--0--0--x--3--0--0--x--3--0----------|
F#|--0--0--x--3--0--0--x--3--0--0--x--3--0--6--5--3-|
 B|--0--0--x--3--0--0--x--3--0--0--x--3--0--6--5--3-|
                                            .  .  .

Bridge

   GTR I
c#|-------------------------------------------------|
G#|-------------------------------------------------|
 E|-------------14\---------------------13\---------|
 B|--------------x-----------------------x----------|
F#|--0--0-----0-12\----------0--0-----0-11\---------|
 B|--0--0-----0--------------0--0-----0-------------|
  |  .  .     .              .  .     .
  |GTR II
c#|-------------------------------------------------|
G#|-------------------------------------------------|
 E|-------------14\---------------------13\---------|
 B|--------------x-----------------------x----------|
F#|--0--0-----0-12\----------0--0-----0-11\---------|
 B|--0--0-----0--------------0--0-----0-------------|
     .  .     .              .  .     .

   GTR I
c#|-------------------------------------------------|
G#|-------------------------------------------------|
 E|-------------12\---------------------11\---------|
 B|--------------x-----------------------x----------|
F#|--0--0-----0-10\----------0--0-----0--9\---------|
 B|--0--0-----0--------------0--0-----0-------------|
  |  .  .     .              .  .     .
  |GTR II
c#|-------------------------------------------------|
G#|-------------------------------------------------|
 E|-------------12\---------------------11\---------|
 B|--------------x-----------------------x----------|
F#|--0--0-----0-10\----------0--0-----0--9\---------|
 B|--0--0-----0--------------0--0-----0-------------|
     .  .     .              .  .     .

   GTR I
c#|-------------------------------------------------|
G#|-------------------------------------------------|
 E|-------------14\---------------------13\---------|
 B|--------------x-----------------------x----------|
F#|--0--0-----0-12\----------0--0-----0-11\---------|
 B|--0--0-----0--------------0--0-----0-------------|
  |  .  .     .              .  .     .
  |GTR II
c#|-------------------------------------------------|
G#|-------------------------------------------------|
 E|-------------14\---------------------13\---------|
 B|--------------x-----------------------x----------|
F#|--0--0-----0-12\----------0--0-----0-11\---------|
 B|--0--0-----0--------------0--0-----0-------------|
     .  .     .              .  .     .

   GTR I
c#|-------------------------------------------------|
G#|-------------------------------------------------|
 E|-------------12\---------------------11\---------|
 B|--------------x-----------------------x----------|
F#|--0--0-----0-10\----------0--0-----0--9\---------|
 B|--0--0-----0--------------0--0-----0-------------|
  |  .  .     .              .  .     .
  |GTR II
c#|-------------------------------------------------|
G#|-------------------------------------------------|
 E|-------------12\---------------------11\---------|
 B|--------------x-----------------------x----------|
F#|--0--0-----0-10\----------0--0-----0--9\---------|
 B|--0--0-----0--------------0--0-----0-------------|
     .  .     .              .  .     .

   GTR I
c#|-------------------------------------------------|
G#|-------------------------------------------------|
 E|-------------14\---------------------13\---------|
 B|--------------x-----------------------x----------|
F#|--0--0-----0-12\----------0--0-----0-11\---------|
 B|--0--0-----0--------------0--0-----0-------------|
  |  .  .     .              .  .     .
  |GTR II
c#|-------------------------------------------------|
G#|-------------------------------------------------|
 E|-------------14\---------------------13\---------|
 B|--------------x-----------------------x----------|
F#|--0--0-----0-12\----------0--0-----0-11\---------|
 B|--0--0-----0--------------0--0-----0-------------|
     .  .     .              .  .     .

   GTR I
c#|-------------------------------------------------|
G#|-------------------------------------------------|
 E|-------------12\---------------------11\---------|
 B|--------------x-----------------------x----------|
F#|--0--0-----0-10\----------0--0-----0--9\---------|
 B|--0--0-----0--------------0--0-----0-------------|
  |  .  .     .              .  .     .
  |GTR II
c#|-------------------------------------------------|
G#|-------------------------------------------------|
 E|-------------12\---------------------11\---------|
 B|--------------x-----------------------x----------|
F#|--0--0-----0-10\----------0--0-----0--9\---------|
 B|--0--0-----0--------------0--0-----0-------------|
     .  .     .              .  .     .

   GTR I
c#|-------------------------------------------------|
G#|-------------------------------------------------|
 E|-------------14\---------------------15\---------|
 B|--------------x-----------------------x----------|
F#|--0--0-----0-12\----------0--0-----0-13\---------|
 B|--0--0-----0--------------0--0-----0-------------|
  |  .  .     .              .  .     .
  |GTR II
c#|-------------------------------------------------|
G#|-------------------------------------------------|
 E|-------------14\---------------------15\---------|
 B|--------------x-----------------------x----------|
F#|--0--0-----0-12\----------0--0-----0-13\---------|
 B|--0--0-----0--------------0--0-----0-------------|
     .  .     .              .  .     .

   GTR I
c#|-------------------------------------------------|
G#|-------------------------------------------------|
 E|-------------16\---------------------17\---------|
 B|--------------x-----------------------x----------|
F#|--0--0-----0-14\----------0--0-----0-15\---------|
 B|--0--0-----0--------------0--0-----0-------------|
  |  .  .     .              .  .     .
  |GTR II
c#|-------------------------------------------------|
G#|-------------------------------------------------|
 E|-------------16\---------------------17\---------|
 B|--------------x-----------------------x----------|
F#|--0--0-----0-14\----------0--0-----0-15\---------|
 B|--0--0-----0--------------0--0-----0-------------|
     .  .     .              .  .     .

Intro

   GTR I 
c#|-------------------------------------------------|
G#|-------------------------------------------------|
 E|-------------------------------------------------|
 B|-------------------------------------------------|
F#|-------------------------------------------------|
 B|--0h10h12--0h12h13--0h10h12--0h12h13--0h10h12----|
  |
  |GTR II 
c#|-------------------------------------------------|
G#|-------------------------------------------------|
 E|-------------------------------------------------|
 B|-------------------------------------------------|
F#|--0--0-------------------------------------------|
 B|--0--0-------------------------------------------|
     .  .

   GTR I
c#|-------------------------------------------------|
G#|-------------------------------------------------|
 E|-------------------------------------------------|
 B|-------------------------------------------------|
F#|-------------------------------------------------|
 B|--0h10h12--0h12h13--0--0--5p-3--5/-6\-5p-3p-0----|
  |
  |GTR II
c#|-------------------------------------------------|
G#|-------------------------------------------------|
 E|-------------------------------------------------|
 B|-------------------------------------------------|
F#|--0-----0----------------------------------------|
 B|--0-----0----------------------------------------|
     .     .

   GTR I 
c#|-------------------------------------------------|
G#|-------------------------------------------------|
 E|-------------------------------------------------|
 B|-------------------------------------------------|
F#|-------------------------------------------------|
 B|--0h10h12--0h12h13--0h10h12--0h12h13--0h10h12----|
  |
  |GTR II 
c#|-------------------------------------------------|
G#|-------------------------------------------------|
 E|-------------------------------------------------|
 B|-------------------------------------------------|
F#|--0--0-------------------------------------------|
 B|--0--0-------------------------------------------|
     .  .

   GTR I
c#|-------------------------------------------------|
G#|-------------------------------------------------|
 E|-------------------------------------------------|
 B|-------------------------------------------------|
F#|-------------------------------------------------|
 B|--0h10h12--0h12h13--0--0--5p-3--5/-6\-5p-3p-0----|
  |
  |GTR II
c#|-------------------------------------------------|
G#|-------------------------------------------------|
 E|-------------------------------------------------|
 B|-------------------------------------------------|
F#|--0-----0----------------------------------------|
 B|--0-----0----------------------------------------|
     .     .

Bridge 2

   GTR I 
c#|-------------------------------------------------|
G#|-------------------------------------------------|
 E|-------------------------------------------------|
 B|-------------------------------------------------|
F#|--------------------------------------------9----|
 B|--0h10h12--0h12h13--0h10h12--0h12h13--0h10-------|
  |
  |GTR II 
c#|-------------------------------------------------|
G#|-------------------------------------------------|
 E|-------------------------------------------------|
 B|-------------------------------------------------|
F#|--0-----0--------0--------0-----0--------0-------|
 B|--0-----0--------0--------0-----0--------0-------|
     .     .        .        .     .        .

   GTR I
c#|-------------------------------------------------|
G#|-------------------------------------------------|
 E|-------------------------------------------------|
 B|-------------------------------------------------|
F#|--------------------------------------------9----|
 B|--0h10h12--0h12h13--0h10h12--0h12h13--0h10-------|
  |
  |GTR II
c#|-------------------------------------------------|
G#|-------------------------------------------------|
 E|-------------------------------------------------|
 B|-------------------------------------------------|
F#|--0-----0--------0--------0-----0--------0-------|
 B|--0-----0--------0--------0-----0--------0-------|
     .     .        .        .     .        .

   GTR I 
c#|-------------------------------------------------|
G#|-------------------------------------------------|
 E|-------------------------------------------------|
 B|-------------------------------------------------|
F#|--------------------------------------------9----|
 B|--0h10h12--0h12h13--0h10h12--0h12h13--0h10-------|
  |
  |GTR II 
c#|-------------------------------------------------|
G#|-------------------------------------------------|
 E|-------------------------------------------------|
 B|-------------------------------------------------|
F#|--0-----0-----0-----0-----0-----0-----0-----0----|
 B|--0-----0-----0-----0-----0-----0-----0-----0----|
     .     .     .     .     .     .     .     .

   GTR I
c#|-------------------------------------------------|
G#|-------------------------------------------------|
 E|-------------------------------------------------|
 B|-------------------------------------------------|
F#|-------------------------------------------------|
 B|--0h10h12--0h12h13--0--0--5p-3--5/-6\-5p-3p-0----|
  |
  |GTR II
c#|-------------------------------------------------|
G#|--13---------------------------------------------|
 E|--15b--------------------------------------------|
 B|-------------------------------------------------|
F#|-------------------------------------------------|
 B|-------------------------------------------------|
              
Bridge 3

   GTR I
c#|-------------------------------------------------|
G#|-------------------------------------------------|
 E|-------------14\---------------------13\---------|
 B|--------------x-----------------------x----------|
F#|--0--0-----0-12\----------0--0-----0-11\---------|
 B|--0--0-----0--------------0--0-----0-------------|
  |  .  .     .              .  .     .
  |GTR II
c#|-------------------------------------------------|
G#|-------------------------------------------------|
 E|-------------14\---------------------13\---------|
 B|--------------x-----------------------x----------|
F#|--0--0-----0-12\----------0--0-----0-11\---------|
 B|--0--0-----0--------------0--0-----0-------------|
     .  .     .              .  .     .

   GTR I
c#|-------------------------------------------------|
G#|-------------------------------------------------|
 E|-------------12\---------------------11\---------|
 B|--------------x-----------------------x----------|
F#|--0--0-----0-10\----------0--0-----0--9\---------|
 B|--0--0-----0--------------0--0-----0-------------|
  |  .  .     .              .  .     .
  |GTR II
c#|-------------------------------------------------|
G#|-------------------------------------------------|
 E|-------------12\---------------------11\---------|
 B|--------------x-----------------------x----------|
F#|--0--0-----0-10\----------0--0-----0--9\---------|
 B|--0--0-----0--------------0--0-----0-------------|
     .  .     .              .  .     .

   GTR I
c#|-------------------------------------------------|
G#|-------------------------------------------------|
 E|-------------14\---------------------15\---------|
 B|--------------x-----------------------x----------|
F#|--0--0-----0-12\----------0--0-----0-13\---------|
 B|--0--0-----0--------------0--0-----0-------------|
  |  .  .     .              .  .     .
  |GTR II
c#|-------------------------------------------------|
G#|-------------------------------------------------|
 E|-------------14\---------------------15\---------|
 B|--------------x-----------------------x----------|
F#|--0--0-----0-12\----------0--0-----0-13\---------|
 B|--0--0-----0--------------0--0-----0-------------|
     .  .     .              .  .     .

   GTR I
c#|-------------------------------------------------|
G#|-------------------------------------------------|
 E|-------------16\---------------------17\---------|
 B|--------------x-----------------------x----------|
F#|--0--0-----0-14\----------0--0-----0-15\---------|
 B|--0--0-----0--------------0--0-----0-------------|
  |  .  .     .              .  .     .
  |GTR II
c#|-------------------------------------------------|
G#|-------------------------------------------------|
 E|-------------16\---------------------17\---------|
 B|--------------x-----------------------x----------|
F#|--0--0-----0-14\----------0--0-----0-15\---------|
 B|--0--0-----0--------------0--0-----0-------------|
     .  .     .              .  .     .
 
Pre Chorus

   GTR I
c#|-------------------------------------------------|
G#|-------------------------------------------------|
 E|-------------------------------------------------|
 B|--8--8--8--8--8--8--8--8-10-10-10-10-10-10-10-10-|
F#|--8--8--8--8--8--8--8--8-10-10-10-10-10-10-10-10-|
 B|--8--8--8--8--8--8--8--8-10-10-10-10-10-10-10-10-|
  |
  |GTR II
c#|-------------------------------------------------|
G#|-------------------------------------------------|
 E|-------------------------------------------------|
 B|--8--8--8--8--8--8--8--8-10-10-10-10-10-10-10-10-|
F#|--8--8--8--8--8--8--8--8-10-10-10-10-10-10-10-10-|
 B|--8--8--8--8--8--8--8--8-10-10-10-10-10-10-10-10-|

   GTR I
c#|-------------------------------------------------|
G#|-------------------------------------------------|
 E|-------------------------------------------------|
 B|--5--5--x--3--5--5--x--3--5--5--x--3--5----------|
F#|--5--5--x--3--5--5--x--3--5--5--x--3--5--6--5--3-|
 B|--5--5--x--3--5--5--x--3--5--5--x--3--5--6--5--3-|
  |                                         .  .  .
  |GTR II
c#|-------------------------------------------------|
G#|-------------------------------------------------|
 E|-------------------------------------------------|
 B|--5--5--x--3--5--5--x--3--5--5--x--3--5----------|
F#|--5--5--x--3--5--5--x--3--5--5--x--3--5--6--5--3-|
 B|--5--5--x--3--5--5--x--3--5--5--x--3--5--6--5--3-|
                                            .  .  .

Chorus

   GTR I
c#|-------------------------------------------------|
G#|-------------------------------------------------|
 E|-------------------------------------------------|
 B|--0--0--x--3--0--0--x--3--0--0--x--3--0--6--5--3-|
F#|--0--0--x--3--0--0--x--3--0--0--x--3--0--6--5--3-|
 B|--0--0--x--3--0--0--x--3--0--0--x--3--0--6--5--3-|
  |
  |GTR II
c#|-------------------------------------------------|
G#|-------------------------------------------------|
 E|-------------------------------------------------|
 B|--0--0--x--3--0--0--x--3--0--0--x--3--0--6--5--3-|
F#|--0--0--x--3--0--0--x--3--0--0--x--3--0--6--5--3-|
 B|--0--0--x--3--0--0--x--3--0--0--x--3--0--6--5--3-|

   GTR I
c#|-------------------------------------------------|
G#|-------------------------------------------------|
 E|-------------------------------------------------|
 B|--0--0--x--3--0--0--x--3--0--0--x--3--0----------|
F#|--0--0--x--3--0--0--x--3--0--0--x--3--0--6--5--3-|
 B|--0--0--x--3--0--0--x--3--0--0--x--3--0--6--5--3-|
  |                                         .  .  .
  |GTR II
c#|-------------------------------------------------|
G#|-------------------------------------------------|
 E|-------------------------------------------------|
 B|--0--0--x--3--0--0--x--3--0--0--x--3--0----------|
F#|--0--0--x--3--0--0--x--3--0--0--x--3--0--6--5--3-|
 B|--0--0--x--3--0--0--x--3--0--0--x--3--0--6--5--3-|
                                            .  .  .

   GTR I
c#|-------------------------------------------------|
G#|-------------------------------------------------|
 E|-------------------------------------------------|
 B|--0--0--x--3--0--0--x--3--0--0--x--3--0--6--5--3-|
F#|--0--0--x--3--0--0--x--3--0--0--x--3--0--6--5--3-|
 B|--0--0--x--3--0--0--x--3--0--0--x--3--0--6--5--3-|
  |
  |GTR II
c#|-------------------------------------------------|
G#|-------------------------------------------------|
 E|-------------------------------------------------|
 B|--0--0--x--3--0--0--x--3--0--0--x--3--0--6--5--3-|
F#|--0--0--x--3--0--0--x--3--0--0--x--3--0--6--5--3-|
 B|--0--0--x--3--0--0--x--3--0--0--x--3--0--6--5--3-|

   GTR I
c#|-------------------------------------------------|
G#|-------------------------------------------------|
 E|-------------------------------------------------|
 B|--0--0--x--3--0--0--x--3--0--0--x--3--0----------|
F#|--0--0--x--3--0--0--x--3--0--0--x--3--0--6--5--3-|
 B|--0--0--x--3--0--0--x--3--0--0--x--3--0--6--5--3-|
  |                                         .  .  .
  |GTR II
c#|-------------------------------------------------|
G#|-------------------------------------------------|
 E|-------------------------------------------------|
 B|--0--0--x--3--0--0--x--3--0--0--x--3--0----------|
F#|--0--0--x--3--0--0--x--3--0--0--x--3--0--6--5--3-|
 B|--0--0--x--3--0--0--x--3--0--0--x--3--0--6--5--3-|
                                            .  .  .
Outro

   GTR I
c#|-------------------------------------------------|
G#|-------------------------------------------------|
 E|-------------------------------------------------|
 B|-------------------------------------------------|
F#|--0-----3-----5-----3-----5-----6-----5-----3----|
 B|--0-----3-----5-----3-----5-----6-----5-----3----|
  |  .     .     .     .     .     .     .     .
  |GTR II
c#|-------------------------------------------------|
G#|-------------------------------------------------|
 E|-------------------------------------------------|
 B|-------------------------------------------------|
F#|--0-----3-----5-----3-----5-----6-----5-----3----|
 B|--0-----3-----5-----3-----5-----6-----5-----3----|
     .     .     .     .     .     .     .     .

   GTR I
c#|-------------------------------------------------|
G#|-------------------------------------------------|
 E|-------------------------------------------------|
 B|-------------------------------------------------|
F#|--0-----3-----5-----3-----5-----6-----5-----3----|
 B|--0-----3-----5-----3-----5-----6-----5-----3----|
  |  .     .     .     .     .     .     .     .
  |GTR II
c#|-------------------------------------------------|
G#|-------------------------------------------------|
 E|-------------------------------------------------|
 B|-------------------------------------------------|
F#|--0-----3-----5-----3-----5-----6-----5-----3----|
 B|--0-----3-----5-----3-----5-----6-----5-----3----|
     .     .     .     .     .     .     .     .

   GTR I
c#|-------------------------------------------------|
G#|-------------------------------------------------|
 E|-------------------------------------------------|
 B|--------------------------x----------------------|
F#|--0-----3-----5-----3-----x-----0-----2-----3----|
 B|--0-----3-----5-----3-----x-----0-----2-----3----|
  |  .     .     .     .           .     .     .
  |GTR II
c#|-------------------------------------------------|
G#|-------------------------------------------------|
 E|-------------------------------------------------|
 B|--------------------------x----------------------|
F#|--0-----3-----5-----3-----x-----0-----2-----3----|
 B|--0-----3-----5-----3-----x-----0-----2-----3----|
     .     .     .     .           .     .     .


| .  palm mute
| /  slide up
| \  slide down
| h  hammer-on
| p  pull-off
| ~  vibrato
| +  harmonic
| x  Mute note
===============================================================================

Tap to rate this tab
 
# A B C D E F G H I J K L M N O P Q R S T U V W X Y Z