Thornley - Straight To Hell tab

Thornley
Straight to Hell

tuning - drop D 1/2 step down


main riff part a
E|---------------------------------------|
B|---------------------------------------|
G|---------------------------------------|
D|---------------------------------------|
A|---------------------------------------|
D|--3p0-0-0-3p0-0-0-3p0-5p0-3p0-0-0------|

main riff part b
E|------------------------------|
B|------------------------------|
G|------------------------------|
D|------------------------------|
A|------------------------------|
D|--6p3p0-6p3p0-6p3p0-6p3p0-----|


verse is bass except for this thrown in
E|------------------------------|
B|------------------------------|
G|------------------------------|
D|------------------------------|
A|------------------------------|
D|--6p3p0-6p3p0-6p3p0-6p3p0-----|

pre-chorus
E|--13---13----------------13---13---------------|
B|--16b--16b--15-------15--16b--16b--15----------|
G|---------------16-17------------------16-14----|
D|-----------------------------------------------|
A|-----------------------------------------------|
D|-----------------------------------------------|

E|---------------------------------------|
B|---------------------------------------|
G|---------------------------------------|
D|---------------------------------------|
A|---------------------------------------|
D|--3p0-0-0-3p0-0-0-3p0-5p0-3p0-0-0------|

chorus
E|---------------------------------------------|
B|---------------------------------------------|
G|---------------------------------------------|
D|------------------5--------------------------|
A|--3-0-3-0-3-0-3-0-3-3-0-3-0-3-0-8-8-8-7------|
D|--3-0-3-0-3-0-3-0---3-0-3-0-3-0-8-8-8-7------|

interlude
E|------------------|
B|------------------|
G|------------------|
D|------------------|
A|--3-0-3-0-3-0-----|
D|------------------|

behind solo               ending with
E|----------------------------------------|
B|---------------3------------------------|
G|---------------2--------2-2-------2-2---|
D|----2---2---2--0--------2-2-------2-2---|
A|--3-0-3-0-3-0-----------0-0-------0-0---|
D|----------------------------------------|


sweet_inc
Tap to rate this tab
 
# A B C D E F G H I J K L M N O P Q R S T U V W X Y Z