Song name
# A B C D E F G H I J K L M N O P Q R S T U V W X Y Z

Thornley - Lies That I Believe tab

Help us improve GuitareTab! Take a short survey!
-----------------------------------------------------------------------------
			     The Lies That I Believe INTRO - Thornley
-----------------------------------------------------------------------------
Tabbed by: Alice 
Email: foldingpie@gmail.com

Tuning: Standard (this isn't the actual tuning, but this is as good as I can do, and it's pretty easy)

e|---0---------0----4-----0---------0----4--------|
B|------2-4-------2----------2-4-------2----------|
G|-1---------1----------1---------1---------------|
D|------------------------------------------------|
A|------------------------------------------------|
E|------------------------------------------------|

e|-------2--------------------2-------------------|
B|-----0--------0-----------0-------0-------------|
G|---3--------3---3-------3-------3---3-----------|
D|-4--------4-----------4-------4-----------------|
A|------------------------------------------------|
E|------------------------------------------------|
     x2

And there you have it. (this is my first tab, by the way, hope it's alright)
Related for Lies That I Believe tab