Song name
# A B C D E F G H I J K L M N O P Q R S T U V W X Y Z

Thornley - Going Rate tab

Help us improve GuitareTab! Take a short survey!
----------------------------------------------------------------------------
			     The Going Rate - Thornley
----------------------------------------------------------------------------
Tabbed by: Bones Malone
Email: mikey_j_420@yahoo.com

Tuning: Drop B

Intro:  Listen to the CD for strumming pattern.
e|--------------------------------------------------------------------------|
B|-0---0---0----------------------------------------------------------------|
G|-7---5---4----------------------------------------------------------------|
D|-7---7---7------------5---------------------------------------------------|
A|----------------------5---------------------------------------------------|
E|----------------------5---------------------------------------------------|
                        "...Have we running out of time..."


Chorus:
e|--------------------------------------------------------------------------|
B|--------------------------------------------------------------------------|
G|--------------------------------------------------------------------------|
D|-7----3----5--------------------------------------------------------------|
A|-7----3----5--------------------------------------------------------------|
E|-7----3----5--------------------------------------------------------------|
   "Bent out of shape..."

Bridge:
e|--------------------------------------------------------------------------|
B|--------------------------------------------------------------------------|
G|--------------------------------------------------------------------------|
D|-3-/-4-/-5-/-6--/-7-\-3---------------------------------------------------|
A|-3-/-4-/-5-/-6--/-7-\-3---------------------------------------------------|
E|-3-/-4-/-5-/-6--/-7-\-3---------------------------------------------------|
   "Can you be stronger than this..."


| /  slide up
| \  slide down
| h  hammer-on
| p  pull-off
| ~  vibrato
| +  harmonic
| x  Mute note
Related for Going Rate tab