Song name
# A B C D E F G H I J K L M N O P Q R S T U V W X Y Z

Thornley - Found Another Way tab

Help us improve GuitareTab! Take a short survey!
Found Another Way
THORNLEY

tabbed by sweet_inc


Tuning: Drop D, 1/2 step down (D-A-D-G-B-e)



intro pt1
e|-2-2-2-2-2-2-2-b2-b2-b2-b2-b2-2-2-2-------|
B|------------------------------------------|
G|------------------------------------------|
D|------------------------------------------|
A|------------------------------------------|
D|------------------------------------------|

intro pt2
e|------2---------------2--------------2--------------|
B|----------------------------------------------------|
G|----------------------------------------------------|
D|----4-----4/5\4-----4-----4/5\4----4-----4/5\4------|
A|----------------------------------------------------|
D|--2-----0---------2-----0--------2-----0------------|

verse (palm muted)
e|-----------------------------------------|
B|-----------------------------------------|
G|-----------------------------------------|
D|------4--------4--------4----4/5\4-------|
A|----2--------2--------2------------------|
D|--2-----0--2-----0--2-----0--------------|

verse pt2
e|------------2-------2-------------|
B|----------------------------------|
G|----------------------------------|
D|--5-2--5-2--------4-----4/5\4-----|
A|--5-2--5-2------------------------|
D|--5-2--5-2------2-----0-----------|

e|-------|
B|-------|
G|-2-----|
D|-2-----|
A|-0-----|
D|-------|

first chorus
e|--------------------------------|
B|--------------------------------|
G|-4-4-4--7-----------------------|
D|-4-4-4--7-0-0-0--5-5-7-2-2------| x3
A|-2-2-2--5-0-0-0--5-5-7-2-2------|
D|----------0-0-0--5-5-7-2-2------|
first chorus ending
e|-------------------------2-2-2-2-2-2-2-2-2-----|
B|-----------------------------------------------|
G|-4-4-4--7--------------------------------------|
D|-4-4-4--7-0-0-0-5-4-3-2------------------------|
A|-2-2-2--5-0-0-0-5-4-3-2------------------------|
D|----------0-0-0-5-4-3-2------------------------|


second chorus 
e|--------------------------------|
B|--------------------------------|
G|-4-4-4--7-----------------------|
D|-4-4-4--7-0-0-0--5-5-7-2-2------| x4
A|-2-2-2--5-0-0-0--5-5-7-2-2------|
D|----------0-0-0--5-5-7-2-2------|

e|-------------------------------|
B|-------------------------------|
G|-4-4-4--7----------------------|
D|-4-4-4--7-0-0-0--5-4-3-2-------| x2
A|-2-2-2--5-0-0-0--5-4-3-2-------|
D|----------0-0-0--5-4-3-2-------|


e|------------------------|
B|------------------------|
G|-9-9-9-10-11------------|
D|-------------5-4-3-2----|
A|-7-7-7-8--9--5-4-3-2----|
D|-------------5-4-3-2----|


final chorus
e|--------------------------------|
B|--------------------------------|
G|-4-4-4--7-----------------------|
D|-4-4-4--7-0-0-0--5-5-7-2-2------| x4
A|-2-2-2--5-0-0-0--5-5-7-2-2------|
D|----------0-0-0--5-5-7-2-2------|

e|-------------------------------|
B|-------------------------------|
G|-4-4-4--7----------------------|
D|-4-4-4--7-0-0-0--5-4-3-2-------| x4
A|-2-2-2--5-0-0-0--5-4-3-2-------|
D|----------0-0-0--5-4-3-2-------|

e|-2-2-2-2-2-2-2-b2-b2-b2-b2-b2-2-2-2-------|
B|------------------------------------------|
G|------------------------------------------|
D|------------------------------------------|
A|------------------------------------------|
D|------------------------------------------|
=============================
Related for Found Another Way tab