Song name
# A B C D E F G H I J K L M N O P Q R S T U V W X Y Z

Thornley - All Comes Out In The Wash tab

ALL COMES OUT IN THE WASH
Thornley
www.thornleyband.com

Tune 1 1/2 steps down, drop D


Verse Chords diagram (follow Progression below)

  Am   C   G  d/g  D  G2
e--0---0---3---3---2----|
b--1---1---3---3---3----|
g--2---0---0---2---2----|
d--2---2---0---0---0--5-|
a--0---3---2----------5-|
D---------------------5-|


Intro
e---------------------12------------------------14----|
b--------13--------13----13--------12--------13-------|
g-----14----14--12--------------12----12--14----------|
d--14------------------------12-----------------------|
a-----------------------------------------------------|
D-----------------------------------------------------|


Chorus
e--------------------|
b--------------------|
g--------------------|
d--777--333--555--00-|
a--777--333--555--00-|
D--777--333--555--00-|

e-----------------55---55----|
b----------------------------|
g----------------------------|
d--777--333--555-----0----00-|
a--777--333--555-----0----00-|
D--777--333--555-----0----00-|

e--------------------|
b--------------------|
g--------------------|
d--777--333--555--00-|
a--777--333--555--00-|
D--777--333--555--00-|

e--------------|
b--------------|
g--------------|
d--777--333--5-|
a--777--333--5-|(let ring)
D--777--333--5-|


interlude
e-----------------|
b-----------------|
g--55555-7--------|
d--55555-7-4---4--|
a--33333-55-3-5-3-|
D-----------------|

e------------------------|
b------------------------|
g--55555-7---------------|
d--55555-7-7-5-4---7-5-4-|
a--33333-5-------5-------|
D------------------------|

e-----------------|
b-----------------|
g--55555-7--------|
d--55555-7-4---4--|
a--33333-55-3-5-3-|
D-----------------|

e-----------------|
b-----------------|
g--55555----------|
d--55555-555555---|
a--33333-555555---|
D--------555555---|

VERSE FOLLOWING INTERLUDE FOLLOWS BASICS OF NORMAL VERSE
OUTRO FOLLOWS CHORUS

**SWEET INC**
Tap to rate this tab
# A B C D E F G H I J K L M N O P Q R S T U V W X Y Z