Song name
# A B C D E F G H I J K L M N O P Q R S T U V W X Y Z

Thorrs Hammer - Norge tab

I have taken some time to work out this song and this is the main riff that is played 
is possible to play this song in drop C tuning, although the guitar is probably tuned much 
than this with the riff played further up the neck. Enjoy! P.S. Stephen o'Malley rules!

--------------------------| x 4
--------------------------|
------------------2--3----|
0-0-0--3-3-2-2-2----------|
0-0-0--3-3-2-2-2----------|
0-0-0--3-3-2-2-2----------|

--------------------------| x4
--------------------------|
--------------------------|
0-0-0--3-3-2-2-2-2-2------|
0-0-0--3-3-2-2-2-2-2------|
0-0-0--3-3-2-2-2-2-2------|

W/distortion - play slowly

In the "verse" the root notes of the riff are played with a clean guitar sound

-------------------------|
-------------------------|
-------------------------|
-------------------------|
-------------------------|
0-0-0-3-3-2-2-2-2-2------|
Tap to rate this tab
# A B C D E F G H I J K L M N O P Q R S T U V W X Y Z