Song name
# A B C D E F G H I J K L M N O P Q R S T U V W X Y Z

Those Dancing Days - Ill Be Yours tab

Artist : Those Dancing Days
Track  : "I'll Be Yours"

Tuning : EADGBe (StAnDaRd)
Capo   : Nope
Key    : A

Chords : (Simple but colourful and catchy 3 chord progression)

    A    D    Bm             A    D    Bm           D
e---5----x----7---|      |---0----2----2---|     |--10----| <- This D Chord
B---5----7----7---|      |---2----3----3---|     |--10----| is played in the
G---6----7----7---|  or  |---2----2----4---|     |--13----| final bar of the
D---7----7----9---|      |---2----0----4---|     |--12----| chorus and, is
A---7----5----9---|      |---0----x----2---|     |--12----| also played in the
E---5----x----7---|      |---x----x----x---|     |--10----| bridge along with
                                                          the A Chord
Intro//Verse/Bridge  : A to D
             Chorus  : A to Bm, then A to D


e---------------|    |---------------------| The little riff that plays
B-------5---5---|    |-------5---7-5---5---| in the intro and the verse.
G---------------| -> |---------------------|
D---7-7---7-----|    |---7-7---7-----7-----|
A---------------|    |---------------------|
E---------------|    |---------------------|

e-------|   |---------------| Strum these chords once or every now and then in
B---5---|   |---5-----------| the Pre-Chorus.
G---6---|   |---7-----------|
D---7---|   |---7---| <-----| Strum this chord multiple times right when
A-------|   |---------------|      the Pre-Chorus is gonna end (Before you strum
E-------|   |---------------|      the first A Chord of the chorus).




Here are the separate notes for the chorus that Linnea sings :

     I'll   Be  Yours And  You're Mi---ne
e---------------------------------------------|
B---------------------------------10----------|
G----------------------9-----11--------11-----|
D-----7-----9-----11--------------------------|
A---------------------------------------------|
E---------------------------------------------|


e--------------------------------------------------------|
B---10----10----------10-----------10-------10-----------|
G-----11----11----9-----11-----9-----11---------11---9---|
D--------------------------------------------------------|
A--------------------------------------------------------|
E--------------------------------------------------------|

End on A =D









Tabbed by : Chester Abellera ^-^
Tap to rate this tab
 
# A B C D E F G H I J K L M N O P Q R S T U V W X Y Z