Song name
# A B C D E F G H I J K L M N O P Q R S T U V W X Y Z

Those Dancing Days - Fuckarias tab

I'm sure there is a way to play this not as high on the neck but this is how the 
guitarist plays it in the music video:
https://www.youtube.com/watch?v=vu6CaRw_KJo



(Intro)
e|---------------------------------------------------------------|
B|---------------------------------------------------------------|
G|---------------------------------------------------------------|
D|-10/12--10/12--10/12------10/12--10/12--10/17------------------|
A|-10/12--10/12--10/12------10/12--10/12--10/17------------------|
E|-8-/10--8-/10--8-/10------8-/10--8-/10--8-/15------------------|

(Verse)
e|----------------------------------------------------------------------|
B|----------------------------------------------------------------------|
G|----------------------------------------------------------------------|
D|-10/12--10/12--10-12--10/17--15/17--15/17--15/17-17--17--15--12-------|
A|-10/12--10/12--10-12--10/17--15/17--15/17--15/17-17--17--15--12-------|
E|-8-/10--8-/10--8-/10--8-/15--13/15--13/15--13/15-15--15--13--10-------|

e|-------------------------------------------------------------|
B|-------------------------------------------------------------|
G|-------------------------------------------------------------|
D|-10/12--10/12--10-12--10/17--15/17--15/17--15/17-17--17--15--|
A|-10/12--10/12--10-12--10/17--15/17--15/17--15/17-17--17--15--|
E|-8-/10--8-/10--8-/10--8-/15--13/15--13/15--13/15-15--15--13--|

(Chorus)Listen to the song for chord changes. Feel free to use barre chords :)
e|--------------------------------------|
B|--------------------------------------|
G|--------------------------------------|
D|----12----15-----10---12--------------|(x4)
A|----12----15-----10---12--------------|
E|----10----13-----8----10--------------|


Verse(x1)
Chorus(x1)
Verse(x1)

(Break)
e|------------------------------------------------|
B|------------------------------------------------|
G|------------------------------------------------|
D|--10/12--10/12--10/12--10/17--------------------|(x3)
A|--10/12--10/12--10/12--10/17--------------------|
E|--8-/10--8-/10--8-/10--8-/15--------------------|

e|------------------------------------------------|
B|------------------------------------------------|
G|------------------------------------------------|
D|--10/12--10/12--10/12--10/15--17-17-17-17-17----|
A|--10/12--10/12--10/12--10/15--17-17-17-17-17----|
E|--8-/10--8-/10--8-/10--8-/13--15-15-15-15-15----|

Chorus(x1)

(Break 2)

e|-------------------------|
B|-------------------------|
G|-------------------------|
D|--10/12-12-12-12-12-10---|(x7)
A|--10/12-12-12-12-12-10---|
E|--8-/10-10-10-10-10-8----|

e|----------------------|
B|----------------------|
G|----------------------|
D|---15-15-15-15-15-----|
A|---15-15-15-15-15-----|
E|---13-13-13-13-13-----|

Chorus(x1)

End With:
e|---------------|
B|---------------|
G|---------------|
D|---10/12--12---|
A|---10/12--12---|
E|---8-/10--10---|
Tap to rate this tab
# A B C D E F G H I J K L M N O P Q R S T U V W X Y Z