Song name
# A B C D E F G H I J K L M N O P Q R S T U V W X Y Z

Thought Riot - Save The Humans tab

Tabbed by:Anthony Crasso
Email: Enjoiflobees@msn.com

Tuning:normal 

Intro 4x
e|-5-5-5-7--5-5-5-7-5---3-1-0-1----------------------------------------------|
B|------------------------------3-1------------------------------------------|
G|---------------------------------------------------------------------------|
D|---------------------------------------------------------------------------|
A|---------------------------------------------------------------------------|
E|---------------------------------------------------------------------------|
Verse
e|---------------------------------------------------------------------------|
B|---------------------------------------------------------------------------|
G|---------------------------------------------------------------------------|
D|--7----------3-------------------------------------------------------------|
A|--7---(10x)--3---(10x)-----------------------------------------------------
E|--5----------1-------------------------------------------------------------|
Chorus
e|---------------------------------------------------------------------------|
B|---------------------------------------------------------------------------|
G|----------5----------------------------------------------------------------|
D|--7---3---5---5------------------------------------------------------------|
A|--7---3---3---5------------------------------------------------------------|
E|--5---1---3---3------------------------------------------------------------|
Verse
During 2nd verse play intro again 
The Bridge is basically the chorus chords played Slowly
Tap to rate this tab
# A B C D E F G H I J K L M N O P Q R S T U V W X Y Z