Song name
# A B C D E F G H I J K L M N O P Q R S T U V W X Y Z

Thousand Foot Krutch - The Flame In All Of Us tab

----------------------------------------------------------------------------
			     SONG NAME - Band Name
----------------------------------------------------------------------------

Tabbed by: David Winyard
Email: winyarddc@gmail.com

Tuning: DADGBe

INTRO
e|-----------------------------------------------------|
B|-----------------------------------------------------|
G|-----------------------------------------------------|
D|----------------------------------------------5-7-3--| 2x
A|----------------------------------------------5-7-3--|
D|--0-3-5-0-8-7-0-10~-0-5-3-0-3-5-0-8-7-0-10~-0-5-7-3--|
    slight vibrato ^

VERSE
e|-----------------------------------|
B|-----------------------------------|
G|-----------------------------------|
D|-000-------------333---------------| 3x
A|-000--7~~-0-7h8--333--3~~-0-3h5----|
D|-000-------------333---------------|
PM ***             ***

PRE CHORUS
e|-------------------------------------|
B|-------------------------------------|
G|-------------------------------------|
D|-------------------------------------|
A|-------------------------------------|
D|-00000000-88888888-55555555-7777-0-3-|

e|-------------------------------------|
B|-------------------------------------|
G|-------------------------------------|
D|-------------------------------------|
A|-------------------------------------|
D|-00000000-88888888-55555555-7-7-7-7--|

CHORUS (clean guitar)
e|----------------0-1-------1-3---------------|second--|-------5-3-|
B|-------------------------------------6-5----|time----|-----------|
G|-------5------2--------------------5--------|through-|-----5-----|
D|-----3------2-----------0--------5----------|end with|---5-------|
A|---3------0-----------0--------3------------|this----|-3---------|
D|-3------------------0-----------------------|instead:|-----------|

e|-------------------------------------|
B|-------------------------------------|
G|-------------------------------------|
D|-33333333-77777777-00000000-AAAAAAAA-| A = 10  play 2x
A|-33333333-77777777-00000000-AAAAAAAA-|
D|-33333333-77777777-00000000-AAAAAAAA-|
 pm....................................|

play intro 2x
play verse 3x
play pre chorus
play chorus through twice

then BRIDGE
e|----------------------------------|
B|----------------------------------|
G|-------5-------5-------5-------5--|
D|-3-7-0-5-3-0-7-5-3-7-0-5-3-7-0-5--|
A|-3-7-0-3-3-0-7-3-3-7-0-3-3-7-0-3--|
D|-3-7-0---3-0-7---3-7-0---3-7-0----|

(distorted guitar)(this is the only part i'm not 100% sure on... feel free to correct)
e|--------------3----------------5--------------------------------5---|
B|------6---------------6------8---8-----6-------5-----6-8-6----8---8-|
G|----5---5---5---5---5---5--5---------5---5---5---5-5--------5-------|
D|--3-------0-------3----------------3-------0------------------------| 2x
A|--------------------------------------------------------------------|
D|--------------------------------------------------------------------|

ENDING
e|-----------------------------------------------------|
B|-----------------------------------------------------|
G|-----------------------------------------------------|
D|----------------------------------------------5-7-3--| 2x
A|----------------------------------------------5-7-3--|
D|--0-3-5-0-8-7-0-10~-0-5-3-0-3-5-0-8-7-0-10~-0-5-7-3--|

e|---------------------------------------------------|
B|---------------------------------------------------|
G|---------------------------------------------------|
D|--0-3-5-0-8-7-0-10-0-5-3-0-3-5-0-8-7-0-10-0-5-7-3--| 2x
A|--0-3-5-0-8-7-0-10-0-5-3-0-3-5-0-8-7-0-10-0-5-7-3--|
D|--0-3-5-0-8-7-0-10-0-5-3-0-3-5-0-8-7-0-10-0-5-7-3--|

there ya go!! enjoy!! please rate and let me know what you think... i don't have much 
to tab but i know a lot of songs so if you have a request maybe i know it and can tab it.
Tap to rate this tab
# A B C D E F G H I J K L M N O P Q R S T U V W X Y Z