Song name
# A B C D E F G H I J K L M N O P Q R S T U V W X Y Z

Thousand Foot Krutch - Puppet tab

Tabbed by:THE SANDMAN 
Email:ryan5@iamwasted.com


Db|-------------------------
Ab|-------------------------
E |-------------------------
B |-------------------------
Gb|-------------------------
B |-3-0--0--0--3-0--0-0-3-5-



Db|---------------------------------
Ab|---------------------------------
E |---------------------------------
B |-3-0-0-3-0-0-3-0-0-7-7-7-7-7-7-7-
Gb|-3-0-0-3-0-0-3-0-0---------------
B |-3-0-0-3-0-0-3-0-0---------------


Db|---------------------------------
Ab|---------------------------------
E |---------------------------------
B |-3-0-0-3-0-0-3-0-0-8-8-8-8-8-8-8-
Gb|-3-0-0-3-0-0-3-0-0---------------
B |-3-0-0-3-0-0-3-0-0---------------


Db|------------------------------ 
Ab|------------------------------
E |------------------------------
B |-3-0-0-3-0-0-3-0-0-3-0-0-3--5-
Gb|-3-0-0-3-0-0-3-0-0-3-0-0-3--5-
B |-3-0-0-3-0-0-3-0-0-3-0-0-3--5-

Verses:
Db|-------------------------------------------------
Ab|-------------------------------------------------
E |-------------------------------------------------
B |-2-2--2-3-2--------------------3-3-3--2-2--2-3-2-
Gb|-2-2--2-3-2--------------------3-3-3--2-2--2-3-2-
B |-2-2--2-3-2--------------------3-3-3--2-2--2-3-2-


Db|-------------------------------------------------------------------
Ab|-------------------------------------------------------------------
E |-------------------------------------------------------------------
B |-2-2--2-3-2------2-2--2-3-0--------2-2--2-3-2--x-x-----3-3-3-3-3-3-
Gb|-2-2--2-3-2------2-2--2-3-0--------2-2--2-3-2--x-x-----3-3-3-3-3-3-
B |-2-2--2-3-2------2-2--2-3-0--------2-2--2-3-2--x-x-----3-3-3-3-3-3-


Db|-------------------------
Ab|-------------------------
E |-------------------------
B |-3-3-3-3-2--3--3-3-3-2-7-
Gb|-3-3-3-3-2--3--3-3-3-2---
B |-3-3-3-3-2--3--3-3-3-2---

Db|---------------------------
Ab|---------------------------
E |---------------------------
B |-3-3-3-3-2--2-2-2-3--2-2-5-
Gb|-3-3-3-3-2--2-2-2-3--2-2-5-
B |-3-3-3-3-2--2-2-2-3--2-2-5-

Db|------------------------
Ab|------------------------
E |------------------------
B |-3-3-3-3-2------------7-
Gb|-3-3-3-3-2--------------
B |-3-3-3-3-2--------------


Db|-------------------------
Ab|-------------------------
E |-------------------------
B |-3-3-3-3-2--2-2-3--2-2-5-
Gb|-3-3-3-3-2--2-2-3--2-2-5-
B |-3-3-3-3-2--2-2-3--2-2-5-
Tap to rate this tab
# A B C D E F G H I J K L M N O P Q R S T U V W X Y Z