Song name
# A B C D E F G H I J K L M N O P Q R S T U V W X Y Z

Thousand Foot Krutch - Stranger tab

this is what i have so far.

it is full of random wah (which makes it all the more difficult to hear and
play)

~im starting at 2:55~
e--14b15-14b15-14b15~--------------------------|
b---------------------1515b16~16b15~15b16-15~--|
g--o
d--o
a--o
d--o

and this is the part where its hardest to hear...
   "rbs,pc"means(return bend slowly plucking continuously)
e----------------------------------------------------13b^15rbs,pc---|o
b-------------------------------------------------------------------|o
g--14p12--14p12--14p12---12h14p1212h14p12--14p12--------------------|o
d-------14-----14-----14-----------------14-----14------------------|o
a-------------------------------------------------------------------|o
d-------------------------------------------------------------------|o

there
Tap to rate this tab
# A B C D E F G H I J K L M N O P Q R S T U V W X Y Z