Song name
# A B C D E F G H I J K L M N O P Q R S T U V W X Y Z

Thousand Foot Krutch - Hurt tab

Thousand Foot Krutch
Hurt
Tabbed by U B the band
Tuning D A D G B E

Intro/Verse: 00:00-00:43
E|---------------------------------------|
B|---------------------------------------|
G|--13(12 times)------13(11 times)-------|
D|--11----------00----11----------000----|
A|--9-----------00----9-----------000----|
D|--------------00----------------000----|x6

Guitar 2 fill-in: 00:07
E|------------------12--12--12--12--12----------------|
B|------14-14---14----14--14--14--14--14---14---------|
G|--11--------11--11---------------------11--11-11----|
D|----------------------------------------------------|
A|----------------------------------------------------|
D|----------------------------------------------------|

Pre chorus: 00:44
E|----------------------------------------|
B|----------------------------------------|
G|----------------------------------------|
D|--9(16 times)--5(8 times)--7(8 times)---|
A|--9------------5-----------7------------|
D|--9------------5-----------7------------|x2

Chorus(piano part clean): 00:59
E|---------------------------------------------------------------------|
B|---------------------------------------------------------------------|
G|---------------------------------------------------------------------|
D|------5-----5-----7-----7-------10-------10-------12-----------------|
A|----5---5-------7---7--------10----10----------12----12----14-12-----|
D|--5-------5---7-------7---10----------10----12----------12-------12--|

E|------------------------------------------------------------|
B|------------------------------------------------------------|
G|------------------------------------------------------------|
D|------5-----5-----7-----7-------10-------10----12-----------|
A|----5---5-------7---7--------10----10----------12-----------|
D|--5-------5---7-------7---10----------10-------12-----------|

Verse two: 01:13-01:49
E|---------------------------------------|
B|---------------------------------------|
G|--13(12 times)------13(11 times)-------|
D|--11----------00----11----------000----|
A|--9-----------00----9-----------000----|
D|--------------00----------------000----|x5

Guitar 2 fill-in: 01:17
E|----------12----12---------12----12-------|
B|-----14------14-------14------14----------|
G|--11----11---------11----11---------11----|
D|------------------------------------------|
A|------------------------------------------|
D|------------------------------------------|

Guitar 2 continued: 01:35
E|-----12----12----|
B|--14----14-------|
G|-----------------|
D|-----------------|
A|-----------------|
D|-----------------|

Guitar 2 continued: 01:43
E|-----------12----|
B|-----14-12-------|
G|--11-------------|
D|-----------------|
A|-----------------|
D|-----------------|

Pre-chorus: 01:50
E|----------------------------------------|
B|----------------------------------------|
G|----------------------------------------|
D|--9(16 times)--5(8 times)--7(8 times)---|
A|--9------------5-----------7------------|
D|--9------------5-----------7------------|x2

Chorus(piano part): 02:05
E|---------------------------------------------------------------------|
B|---------------------------------------------------------------------|
G|---------------------------------------------------------------------|
D|------5-----5-----7-----7-------10-------10-------12-----------------|
A|----5---5-------7---7--------10----10----------12----12----14-12-----|
D|--5-------5---7-------7---10----------10----12----------12-------12--|

E|------------------------------------------------------------|
B|------------------------------------------------------------|
G|------------------------------------------------------------|
D|------5-----5-----7-----7-------10-------10----10-----------|
A|----5---5-------7---7--------10----10----------10-----------|
D|--5-------5---7-------7---10----------10-------10-----------|x2
                                                  ^ 2nd time round stike 8x 
Chorus: 02:34 with distortion
E|---------------------------------------------------------------------|
B|---------------------------------------------------------------------|
G|---------------------------------------------------------------------|
D|------5-----5-----7-----7-------10-------10-------12-----------------|
A|----5---5-------7---7--------10----10----------12----12----14-12-----|
D|--5-------5---7-------7---10----------10----12----------12-------12--|

E|------------------------------------------------------------|
B|------------------------------------------------------------|
G|------------------------------------------------------------|
D|------5-----5-----7-----7-------10-------10----12-----------|
A|----5---5-------7---7--------10----10----------12-----------|
D|--5-------5---7-------7---10----------10-------12-----------|

fill-in part between chorus and Bridge:03:02-03:09
E|---------------------------------------|
B|---------------------------------------|
G|--13(12 times)------13(11 times)-------|
D|--11----------00----11----------000----|
A|--9-----------00----9-----------000----|
D|--------------00----------------000----|

Bridge: 03:09-04:22
E|----------------------------|
B|----------------------------|
G|----------------------------|
D|--5----7----10----12--------|
A|--5----7----10----12--------|
D|--5----7----10----12--------|x11
                     ^ 11th times let ring

Solo:Sorry I have no idea!-PMT

THE END
Tap to rate this tab
# A B C D E F G H I J K L M N O P Q R S T U V W X Y Z