Song name
# A B C D E F G H I J K L M N O P Q R S T U V W X Y Z

Thousand Foot Krutch - Brother John tab

Band- Thousand Foot Krutch
Song- Brother John

I downloaded an Mp3 of this song so I could tab it, and
the mp3 was completely screwed up..So this is all I could
figure out...sorry guys

e[-----------------------------------------------------------]
b[-----------------------------------------------------------]
g[-------------5-5-5-5-5-5-5-9---5-5-5-5-5-5-5-8-------------]
d[-5-x-x-5-x-x-5-5-5-5-5-5-5-9---5-5-5-5-5-5-5-8-------------]
a[-5-x-x-5-x-x-3-3-3-3-3-3-3-7---3-3-3-3-3-3-3-6-------------]
e[-3-x-x-3-x-x-----------------------------------------------]

e[-----------------------------------------------------------]
b[-----------------------------------------------------------]
g[-----------------5-5-5-5-7-7-7-7---------------------------]
d[-5-5-5-5-7-7-7-7-5-5-5-5-7-7-7-7---------------------------]
a[-5-5-5-5-7-7-7-7-3-3-3-3-5-5-5-5---------------------------]
e[-3-3-3-3-5-5-5-5-------------------------------------------]
Tap to rate this tab
# A B C D E F G H I J K L M N O P Q R S T U V W X Y Z