Guitaretab - guitar tabs
Song name
# A B C D E F G H I J K L M N O P Q R S T U V W X Y Z

Thousand Foot Krutch - Home tab

Band- Thousand Foot Krutch
Song- Home

E	2---3---2---5---2---3---2---7---|
B	0---0---0---0---0---0---0---0---|
G	4---5---4---7---4---5---4---9---|        Part 1/ Intro
D	-X---X---X---X---X---X---X---X---|
A	-X---X---X---X---X---X---X---X---|
E	-X---X---X---X---X---X---X---X---|


E-----------------------------------|
B-----------------------------0-----|
G--------0------0------0-------0----|           Part 2/ Verse & Pre Chorus
D------0------0------0------0-------|
A---3-------5------2------7---------|
E-----------------------------------|

[ Tab from: http://www.guitaretab.com/t/thousand-foot-krutch/143115.html ]
E---------------------            -------------------------|
B---------------------            ---1----1----------------|
G-------7---55-------    Chorus Part 1    ---2----2-------|    Chorus Part 2/ Ending
D---5---7---55-------               ---2----3-------------|
A---5---5---2>3-------            -------------------------|
E---3-----------------            -------------------------|


E------------------------------------------------------------------|
B------------------------------------------------------------------|
G------------------------------------------------------------------|          Part 3/Bridge
D-----0---0---0---0---0---0---0---0---0---0---0---0---0---0---0----|
A---2---2---2---2---3---3---3---3---5---5---5---5---7---7---7---7--|
E------------------------------------------------------------------|
Related for Home tab