Song name
# A B C D E F G H I J K L M N O P Q R S T U V W X Y Z

Thousand Foot Krutch - That Thing You Do tab

Band- Thousand Foot Krutch
Song- That Thing You Do

--Intro:--

2 measures of drums and handclaps

guitar comes in on count 1 of measure 3:

--------------------------------------------------------------------|
-9--7--5--0--1------------------------------------------------------|
-9-----------2------------------------------------------------------|
-9-----------2------------------------------------------------------|
-7-----------0------------------------------------------------------|
--------------------------------------------------------------------|

--Verse I:--

[w/ verse riff x2]
E  A  B
E  A  B  C#m
F#  F#m  Am  B

[w/ verse riff x2]
E  A  B
E  A  B  C#m
F#  F#m  D  B

--Chorus I:--
C#m  F#   E  E7  A  Am
E  Am  E  B

--Verse II:-- (same as first)

--Chorus II:-- (same as fist, w/out the last B)


--Bridge:--
A  C#m  F#  B  C  B


--Solo:--

w/ verse chords

--------------------------------------------------------------------|
--------------------------------------------------------------------|
--9--9------9--11br--9---------9--9------9--11br--9------9------9---|
--------11--------------11--9--------11--------------11-----11------|
--------------------------------------------------------------------|
--------------------------------------------------------------------|

--------------------------------------------------------------------|
--------------------------------------------------------------------|
--11b~~--9--11b~~--9--11--11b~~--9--11b~~--9--11--11b~~--9----------|
--------------------------------------------------------------------|
--------------------------------------------------------------------|
--------------------------------------------------------------------|

-----------------|
-----------------|
-----------------|
--11--9--10--9---|
-----------------|
-----------------|


--Outro:--
[w/ verse riff x2]
E  A  B
E  A  B  C#m  F#  F#m  D  B
C#m  F#  E  E7  A  Am
E  Am  [outro riff 1]
E  Am  [outro riff 2]
E  B
[outro riff 3]

[outro riff 3]

Let last chord ring...


Riffs:

Verse riff :

  E                       A        B
--------------------------------------------------------------------|
--------------------------------------------------------------------|
--------------------------------------------------------------------|
-----------------------2--------------------------------------------|
--------------2--2--4-----------4--------6--------------------------|
--0--0--3--4--------------5--5-----7--7-----------------------------|


Outro riff 1:
--------------------------------------------------------------------|
--------------------------------------------------------------------|
--11br--9-----------------------------------------------------------|
-----------9--------------------------------------------------------|
--------------------------------------------------------------------|
--------------------------------------------------------------------|

Outro riff 2:
--------------------------------------------------------------------|
--9--10b(12)r--9----------------------------------------------------|
------------------9-------------------------------------------------|
--------------------------------------------------------------------|
--------------------------------------------------------------------|
--------------------------------------------------------------------|


Outro riff 3:
  A     Am                Emaj7
--------------------------4-----------------------------------------|
--------1-----------------4-----------------------------------------|
-----------2--------------4-----------------------------------------|
-----2-----------------2--6-----------------------------------------|
--0-----------------2-----7-----------------------------------------|
--------------0--4--------4-----------------------------------------|
Tap to rate this tab
 
# A B C D E F G H I J K L M N O P Q R S T U V W X Y Z