Song name
# A B C D E F G H I J K L M N O P Q R S T U V W X Y Z

Thousand Foot Krutch - Forward Motion tab

--------------------------------------------------------------------
                Forward Motion - Thousand Foot Krutch
--------------------------------------------------------------------

Great new TFK song, Forward Motion, Just the intro but I'll try to get the rest of the 
tabbed soon.

E:--------------------------|
B:-3-3-3-3------------------|
G:---------5-5-5-5-3-2-3----|x4
D:--------------------------|
A:--------------------------|
D:--------------------------|

E:------------------------------------|
B:-3-3-3-3----------------3-4-3--3-4-3|
G:---------5-5-5-5-3-2-3--------------|
D:------------------------------------|
A:------------------------------------|
D:------------------------------------|

E:--------------------------|
B:-3-3-3-3------------------|
G:---------5-5-5-5-3-2-3----|x2
D:--------------------------|
A:--------------------------|
D:--------------------------|

E:------------------------------------|
B:-3-3-3-3----------------2-3-2--3-4-3|
G:---------5-5-5-5-3-2-3--------------|
D:------------------------------------|
A:------------------------------------|
D:------------------------------------|


Tabbed By Caleb McKee
Tabbed On July 8, 2009
Email: TeamMM3_Xbox@Yahoo.com
Check out my band Fighting Time!
Tap to rate this tab
# A B C D E F G H I J K L M N O P Q R S T U V W X Y Z