Song name
# A B C D E F G H I J K L M N O P Q R S T U V W X Y Z

Thousand Foot Krutch - The Part That Hurts The Most Is Me tab

Band: Thousand Foot Krutch
Song: The Part That Hurt's The Most
Album: Welcome To The Masquerade

My Favorite Song On This Album and probably my favorite by them

Intro
E------------------------------------------------------------|
B------------------------------------------------------------|
G------------------------------------------------------------|
D------------------------------------------------------------|
A--5-4--5-4--4s5s4s5---5-4--7-5--4s5s4s5---5-4--5-4--4s5s4s5-|
D-4----4----4---------4----4----4---------4----4----4--------|

E------------------------|
B------------------------|
G------------------------|
D------------------------|
A--5-4--5-4--------------|
D-4----4----4--7s6s7s6---|(x2)

Verse
E---------------------------------|
B---------------------------------|
G---------------------------------|
D---------------------------------|                           4 7 2 4
A---------------------------------|                           4 7 2 4
D-4(x16)--7(x16)--2(x16)--4(x16)--|(x2)on second time do full 4 7 2 4
  .        .      .       .                                   . . . .

Chorus
E-------------------------------------------|
B-------------------------------------------|
G----------------------------------4--------|
D-0-0-0-0--4-------0-------2-------4--------|
A----------4-------0-------2-------2(x8)----|
D----------4(x8)---0(x8)---2(x8)------------|(x2)

On Last Chorus end with this instead
E---------------------|
B---------------------|
G-6-6-6-6-6-----------|
D---------------------|
A---------------------|
D------------4-4-4-4--|

Go into Intro play one time
Play Verse Again
Then Chorus Again
Then Play intro twice

Bridge
E-------------------------|
B-------------------------|
G-------------------------|
D-1-0--x-x--x-x-x--x-x-x--|
A-1-0--x-x--x-x-x--x-x-x--|
D-1-0--x-x--x-x-x--x-x-x--|x8 On the 4 time there is a chromatic not sure

Play Chorus 3 or 4 times
Then Play intro once

Your Done!

There is the Song (Rate, Comment)
Tap to rate this tab
 
# A B C D E F G H I J K L M N O P Q R S T U V W X Y Z