Song name
# A B C D E F G H I J K L M N O P Q R S T U V W X Y Z

Thousand Foot Krutch - Foward Motion tab

Artist: TFK
Song: Foward Motion
Tuning: Drop D

1]--------------------|
2]--3333--------------|
3]------555533332233--|
4]--------------------|
5]--------------------|
6]--------------------|

1]----------------------------------|
2]------------------3b4p3-----3b4p3-|
3]----------------------------------|
4]--8-----1-----111-------333-------|
5]--8-16x-1-12x-111-------333-------|
6]--8-----1-----111-------333-------|

Second time it goes

1]----------------------|
2]----------------3b4p3-|
3]------2b3p2-----------|
4]--111-------333-------|
5]--111-------333-------|
6]--111-------333-------|

Verse

1]---------------|
2]---------------|
3]---------------|2x
4]--8--xx8--1--3-|
5]--8--xx8--1--3-|
6]--8--xx8--1--3-|

Pre Chorus

1]-----------|
2]-----------|
3]--32323532-|
4]-----------|
5]-----------|
6]-----------|

1]------------|
2]------------|
3]------------|
4]--1----3----|
5]--1-8x-3-8x-|
6]--1----3----|

Chorus Same as Intro

Bridge Same as Pre Chorus

End

1]-----------------------|
2]---------------3b4p2---|
3]------2b3p2----------3-|
4]--111-------333------3-|
5]--111-------333------1-|
6]--111-------333--------|
Tap to rate this tab
# A B C D E F G H I J K L M N O P Q R S T U V W X Y Z