Song name
# A B C D E F G H I J K L M N O P Q R S T U V W X Y Z

Thousand Foot Krutch - Fire It Up tab

The two Fire It Up tabs didn't have the solo - I'm not any good, but I gave it a go so 
least you guys have something to work with.
(i.e.Please help with corrections if you can)

Exported from Powertab (I usually tab with it so I can hear what it sounds like) so if 
looks a little weird then that's why XD
Also just let me know it you want me to put up the note durations and whatnot.


    ~~~           ~~~~~~~~    ~~~~~~
|-/10--10--10-8-7-8-|-(8)-8-7-5-(5)--5-5-7-|
|-------------------|----------------------|
|-------------------|----------------------|
|-------------------|----------------------|
|-------------------|----------------------|
|-------------------|----------------------|


|-8-7-5-4-5-7-5-4-5-4-3---3-4-3------|
|-----------------------6-------6----|
|------------------------------------|
|------------------------------------|
|------------------------------------|
|------------------------------------|


|-3-------3-------/10--(10)\-10-|
|---6-2-----6-2---/10--(10)\-10-|
|-------5-------5---------------|
|-------------------------------|
|-------------------------------|
|-------------------------------|


                                              TP
|-10-8-10------------10-|-8-8b10r======8b10r=10----|
|-10-8-10------------10-|-8-8b10r==================|
|------------10-10-7----|---------10-7-------------|
|---------10------------|--------------------------|
|-----------------------|--------------------------|
|-----------------------|--------------------------|


    TP    TP   TP   TP    TP    TP
|-(10)\--12\--13\--15\--/17-|-(17)--------|-----*|
|---------------------------|-------------|-----*|
|---------------------------|-------------|-----*|
|---------------------------|-------------|-----*|
|---------------------------|-------------|-----*|
|---------------------------|-------------|-----*|
Tap to rate this tab
# A B C D E F G H I J K L M N O P Q R S T U V W X Y Z