Song name
# A B C D E F G H I J K L M N O P Q R S T U V W X Y Z

Thousand Foot Krutch - Welcome To The Masquerade tab

hey everybody this is my first tab so go easy on me  feel free to correct me


C------------------------------------------------------------------------|
G------------------------------------------------------------------------|
D#-----------------------------------------------------------------------|
A#1-1-1--3-3-3-3--4-4-4--4-4-4-3--1-1-1---3-3-3-3---4-6-6-6--------------|
F-1-1-1--1-1-1-1--4-4-4--2-2-2-1--1-1-1---1-1-1-1---4-6-6-6-3-4-3-4-3----|
Bb1-1-1-----------4-4-4-----------1-1-1-------------4-6-6-6-3-4-3-4-3----|


C--------------------------------------------------------------------------|
G--------------------------------------------------------------------------|
D#-------------------------------------------------------------------------|
A#-1-1-1--3-3-3-3--4-4-4--4-4-4-3--1-1-1---3-3-3-3-----6-6--4-4--3---------|
F--1-1-1--1-1-1-1--4-4-4--2-2-2-1--1-1-1---1-1-1-1-----6-6--4-4--3---------|
Bb-1-1-1-----------4-4-4-----------1-1-1---------------6-6--4-4--3---------|

                         Verse


---------------------------------------------------------------------------|
---------------------------------------------------------------------------|
---------------------------------------------------------------------------|
----------4----3----2TimesThen------4-4--4-4--6----------------------------|
----------2----1--------------------4-4--4-4--6----------------------------|
---1111111----1---------------------4-4--4-4--6----------------------------|
    .......   .
                 Pre Chorus


-----------------------------------------------------------------------|
-------11---------------11------------11--------------11--11-----------|
----11----11----------11--11--------11--11----------11--11--11---------|
-13------------12---12--------11--11---------10---10-------------------|
-----------------------------------------------------------------------|
-----------------------------------------------------------------------|

               Chorus


------------------------------------------------------------------------|
------------------------------------------------------------------------|
------------------------------------------------------------------------|
--1--------4--------4---------------------------------------------------|
--1--------2--------4----------3-4-3-4-6-4-3----------------------------|
--1-----------------4----------3-4-3-4-6-4-3----------------------------|
                               . . . . . . .
            Sorry i dont have the second bit of the second verse

                              solo


-13------|
----11---|
---------|    Plenty of times
---------|
---------|
---------|


                 So thats it .= Palm Mute
Tap to rate this tab
 
# A B C D E F G H I J K L M N O P Q R S T U V W X Y Z