Song name
# A B C D E F G H I J K L M N O P Q R S T U V W X Y Z

Thousand Foot Krutch - Smack Down tab

Tabbed By: ChristianRock11
Artist: Thousand Foot Krutch	
Song: Smack Down

*: Palm Mute
b: Bend
                            Chorus
  
E|-------------------------------------------------------------|
B|-------------------------------------------------------------|
G|-------------------------------------------------------------|
D|--3--1--3--6-6-6-6--8--1-1-1---8-8--6-6-6-6------------------|
A|--3--1--3--6-6-6-6--8--1-1-1---8-8--6-6-6-6------------------|
D|--3--1--3--6-6-6-6--8--1-1-1---8-8--6-6-6-6------------------|
  

E|-------------------------------------------------------------|
B|-------------------------------------------------------------|
G|-------------------------------------------------------------|
D|--3--1--3--6-6-6-6--8--1-1-1---8-8--6-6--10--6---------------|
A|--3--1--3--6-6-6-6--8--1-1-1---8-8--6-6--10--6---------------|
D|--3--1--3--6-6-6-6--8--1-1-1---8-8--6-6--10--6---------------|

                                   Verse

E|-------------------------------------------------------------------|
B|-------------------------------------------------------------------|
G|-------------------------------------------------------------------|
D|--1--3-3-3-3--1--3-3-3--6b---1--3-3-3-3--1--3-3-3--8--6b-----------|
A|--1--3-3-3-3--1--3-3-3--6b---1--3-3-3-3--1--3-3-3--8--6b-----------|
D|--1--3-3-3-3--1--3-3-3--6b---1--3-3-3-3--1--3-3-3--8--6b-----------|
         * * *       * *            * * *       * *

                             Bridge

E|-----------------------------------------------------------------|
B|-----------------------------------------------------------------|
G|-----------------------------------------------------------------|
D|--6-6-6-6--5-5-5-5--3-3-3-3-3-3--5-------------------------------|
A|--6-6-6-6--5-5-5-5--3-3-3-3-3-3--5-------------------------------|
D|--6-6-6-6--5-5-5-5--3-3-3-3-3-3--5-------------------------------|


E|-------------------------------------------------------------------|
B|-------------------------------------------------------------------|
G|-------------------------------------------------------------------|
D|--6-6-6-6--5-5-5-5--3-3-3-3-3-3--3-3--6-5-3-6-5-6-5-6-5-3----------|
A|--6-6-6-6--5-5-5-5--3-3-3-3-3-3--3-3--6-5-3-6-5-6-5-6-5-3----------|
D|--6-6-6-6--5-5-5-5--3-3-3-3-3-3--3-3--6-5-3-6-5-6-5-6-5-3----------|
Tap to rate this tab
 
# A B C D E F G H I J K L M N O P Q R S T U V W X Y Z