Song name
# A B C D E F G H I J K L M N O P Q R S T U V W X Y Z

Thousand Foot Krutch - Smack Down tab

----------------------------------------------------------------------------
		  SMACK DOWN - Thousand Foot Krutch
-----------------------------------------------------------------------------
Tabbed by: Ryan Davis
Email: presetmusic@gmail.com

Tuning: Drop D

Intro:
e|----------------------------------------------------------------|
B|----------------------------------------------------------------|
G|----------------------------------------------------------------|
D|-3-1-3---6-6-6-x-8---1-1-1---8-8--6-6---6-----3-1-3---6-6-6-x-8-|
A|-3-1-3---6-6-6-x-8---1-1-1---8-8--6-6---6-----3-1-3---6-6-6-x-8-|
E|-3-1-3---6-6-6-x-8---1-1-1---8-8--6-6---6--1--3-1-3---6-6-6-x-8-|
                            Verse 1 "and 2"
e|---------------------------------------------------------------|
B|---------------------------------------------------------------|
G|---------------------------------------------------------------|
D|-1-1-1---------------------------------------------------------|
A|-1-1-1---------------------------------------------------------|
E|-1-1-1--8-8--6-6-10-6------------------------------------------|

e|---------------------------------------------------------------|
B|---------------------------------------------------------------|
G|---------------------------------------------------------------|
D|-1h3-x-x-x--1h3-x-x-x--6-----1h3-x-x-x-1h3-x-x-8-6-------------|    x2
A|-1h3-x-x-x--1h3-x-x-x--6-----1h3-x-x-x-1h3-x-x-8-6-------------|
E|-1h3-x-x-x--1h3-x-x-x--6-----1h3-x-x-x-1h3-x-x-8-6-------------|
       listen to get rhythm   "listen for when to play and when not to"

Chorus:
e|---------------------------------------------------------------|
B|---------------------------------------------------------------|
G|---------------------------------------------------------------|
D|--6----1---1--3-----6----1----3--------------------------------|
A|--6-x4-1---1--3-----6-x4-1-x3-3--------------------------------|
E|--6----1---1--3-3h5-6----1----3-3-6-5-3-6-5-3------------------|

That's every part of the song. Repeat when needed. This is 100% correct. Any questions 
comments email me at presetmusic@gmail.com

| /  slide up
| \  slide down
| h  hammer-on
| p  pull-off
| ~  vibrato
| +  harmonic
| x  Mute note
=============================================================================
Tap to rate this tab
 
# A B C D E F G H I J K L M N O P Q R S T U V W X Y Z