Song name
# A B C D E F G H I J K L M N O P Q R S T U V W X Y Z

Thousand Foot Krutch - E For Extintion tab

                 Tuning Drop B:B F# B E G# C#

                         Verse
 -----------------------------------------------------------------------|
 -------1---3-----1------1---3--1----1---3----1-----1-3-----------------|
 ------2--------2------2-------2----2-------2-----2---------------------|
 ----0----0---0----------------------------------------------3-2--------|
 -------------------3------3--3---2----2---2----1-------1-0-------------|
 -----------------------------------------------------------------------|

                           Pre Chorus


 -----------------------------------------|
 -----------------------------------------|
 -----------------------------------------|
 ----0------------3----------5------------|
 ----0---Times 8--3--Times 8-5--Times 16--|     Palm Mute Throughout
 ----0------------3----------5------------|


                             Chorus Part 1


 --------------------------------------------|
 --------------------------------------------|
 --------------------------------------------|
 --3-2-0-2-3-2-0-2-3-2-0-2-3-2-0-------------|
 --3-2-0-2-3-2-0-2-3-2-0-2-3-2-0-------------|   3 Or 4 Times
 --3-2-0-2-3-2-0-2-3-2-0-2-3-2-0-------------|

                              Chorus Part 2

 --------------------------------------------------------------------|
 --------------------------------------------------------------------|
 ----------5-5-5-5---------------------------------------------------|
 -0-0-0-0--5-5-5-5---3-3-3-3--5-5-5-5--------------------------------|
 -0-0-0-0--3-3-3-3---3-3-3-3--5-5-5-5--------------------------------|
 -0-0-0-0------------3-3-3-3--5-5-5-5--------------------------------|

   Then Verse 2 Then Pre Chorus Then Chorus Part 1 Then Chorus Part 2

                          Solo
 ----------------------------------------------------------------------|
 ----------------------------------------------------------------------|
 ----------------------------------------------------------------------|
 -0-3-2-0-5-3-2-3------------------------/6--/6------------------------|
 -0-3-2-0-5-3-2-3----2 Or 3 Times Then---/6--/6------------------------|
 -0-3-2-0-5-3-2-3------------------------/6--/6------------------------|

                           Bridge


 -------------------------------------|
 -------------------------------------|
 -------------------------------------|
 ---0------5------3-----5-------------|
 ---0------3------3-----5-------------|
 ---0-------------3-----5-------------|

Then Chorus Thanks /=Slide Please Rate
Tap to rate this tab
# A B C D E F G H I J K L M N O P Q R S T U V W X Y Z