Guitaretab - guitar tabs
Song name
# A B C D E F G H I J K L M N O P Q R S T U V W X Y Z

Thousand Foot Krutch - The Invitation tab

Song: The Invitation
Artist: Thousand Foot Krutch
Transcribed: leftyluke7
Tuning: Drop B

Intro
  Guitar 1 (clean electric): 
     (fade in)
   Db|-17(x8)--|--17(x7)--17-|
   Ab|--x------|---x-------x-|
    E|-14------|--14------15-|
    B|---------|-------------|
   Gb|---------|-------------|
    B|---------|-------------|x4

Bridge
  Guitar 1:
   Db|-17(x8)--|--17(x7)--17-|
   Ab|--x------|---x-------x-|
    E|-14------|--14------15-|
    B|---------|-------------|
   Gb|---------|-------------|
    B|---------|-------------|x4

  Guitar 2 (distorted):
   Db|--------|-------|--------|---------|
   Ab|--------|-------|--------|---------|
    E|--------|-------|--------|-14(x4)--|
    B|--0(x4)-|-8(x4)-|-10(x4)-|-14------|
   Gb|--0-----|-8-----|-10-----|-12------|
    B|--0-----|-8-----|-10-----|---------|x2
      PM.................................
[ Tab from: http://www.guitaretab.com/t/thousand-foot-krutch/209022.html ]
  Guitar 3 (Piano):
   Db|----------|   |--------------------------|
   Ab|---(7-----|   |--------------------------|
    E|-measures-|   |--------------------------|
    B|-of-rest)-|   |-------------14-15-14-15--|
   Gb|----------|   |--14-15-14----------------|
    B|----------|x7 |--------------------------|

Outro
  Guitar 1:
   Db|-17(x8)--|--17(x7)--17-|
   Ab|--x------|---x-------x-|
    E|-14------|--14------15-|
    B|---------|-------------|
   Gb|---------|-------------|
    B|---------|-------------|x2

  Guitar 2:
   Db|--------|-------|--------|---------|
   Ab|--------|-------|--------|---------|
    E|--------|-------|--------|-14(x16)-|
    B|--0(x16)|-8(x16)|-10(x16)|-14------|
   Gb|--0-----|-8-----|-10-----|-12------|
    B|--0-----|-8-----|-10-----|---------|
      PM.................................

  Guitar 3:
   Db|---------|   |---------|--------------------------|
   Ab|---------|   |---------|--------------------------|
    E|------14-|   |---------|--------------------------|
    B|-12------|   |-12------|-------------14-15-14-15--|
   Gb|---------|   |---------|--14-15-14----------------|
    B|---------|x2 |---------|--------------------------|

Thatís it!!! Let me know if you have any questions or corrections.
Related for The Invitation tab
The Invitation chords by Thousand Foot Krutch