Song name
# A B C D E F G H I J K L M N O P Q R S T U V W X Y Z

Thousand Foot Krutch - Welcome To The Masquerade tab

Heres My New Version

Tunings Drop B This Time B F# B E C# G# Intro

 ----------------------------------------------------------------------------|
 ----------------------------------------------------------------------------|
 ----------------------------------------------------------------------------|
 --0-0-0--7-7-7--3-3-3--8-8-7--0-0-0--7-7-7--3-3-3--8-8-7--3-5-5-5-2-3-2-3-2-|
 --0-0-0--7-7-7--3-3-3--8-8-7--0-0-0--7-7-7--3-3-3--8-8-7--3-5-5-5-2-3-2-3-2-|
 --0-0-0--7-7-7--3-3-3--8-8-7--0-0-0--7-7-7--3-3-3--8-8-7--3-5-5-5-2-3-2-3-2-|

----------------------------------------------------------------------------|
 ---------------------------------------------------------------------------|
 ---------------------------------------------------------------------------|
 --0-0-0--7-7-7--3-3-3--8-8-7--0-0-0--7-7-7--3-3-3--8-8-7--5-5-5-3-3-2------|
 --0-0-0--7-7-7--3-3-3--8-8-7--0-0-0--7-7-7--3-3-3--8-8-7--5-5-5-3-3-2------|
 --0-0-0--7-7-7--3-3-3--8-8-7--0-0-0--7-7-7--3-3-3--8-8-7--5-5-5-3-3-2------|

                                   Verse

 ----------------------------------------------------------------------|
 ----------------------------------------------------------------------|
 ----------------------------------------------------------------------|
 ----------8---7----------3---7-------8--3-3--3-3-5--------------------|
 ----------8---7----------3---7-------8--3-3--3-3-5--------------------|
 --0000000-8-0-7--0000000-3-0-7--0000-8--3-3--3-3-5--------------------|
   2 Times
                         Pre Chorus
 ----------------------------------------------------------------------|
 -----10-----------10-----------10----------10--10---------------------|
 ---10--10-------10--10-------10---10-----10--10--10-------------------|
 -12-------11--11-------10--10--------9--9-----------------------------|
 ----------------------------------------------------------------------|
 ----------------------------------------------------------------------|
                             Chorus
 ----------------------------------------------------------------------|
 ----------------------------------------------------------------------|
 ------------3---------------------------------------------------------|
 --0---------3---------3----2-3-2-3-5-3-2------------------------------|
 --0---------1---------3----2-3-2-3-5-3-2------------------------------|
 --0-------------------3----2-3-2-3-5-3-2------------------------------|
                            . . . . . . .

2 Times Post Chorus Same As Chorus


                 Bridge
 --------------------------------|
 --------------------------------|
 --------------------------------|
 -0-0-0-0-8-8-8-8-11-11-11-11----|
 -0-0-0-0-8-8-8-8-11-11-11-11----|
 -0-0-0-0-8-8-8-8-11-11-11-11----|
  . . . . . . . . .  .  .  .

 ---12----12----12--0-----------------------| Many Times
 10----10----10-----------------------------|
 -------------------------------------------|
 -------------------------------------------|
 -------------------------------------------|
 -------------------------------------------|

     Palm Mute =.
Tap to rate this tab
# A B C D E F G H I J K L M N O P Q R S T U V W X Y Z