Song name
# A B C D E F G H I J K L M N O P Q R S T U V W X Y Z

Thousand Foot Krutch - Scream tab

Intro:

e|-------------------------------|
B|-------------------------------|
G|-------------------------------|
D|--000--666--777---4-2----------|   X4
A|--000--666--777---4-2----------|
E|--000--666--777---4-2----------|

Verse:

e|------------------------|
B|------------------------|
G|------------------------|
D|------------------------|  X2
A|------------------------|
E|--000--666--777---4-2---|
    ***  ***  ***   * *

e|------------------------|
B|------------------------|
G|------------------------|
D|--000--666--777---4-2---|  X2
A|--000--666--777---4-2---|
E|--000--666--777---4-2---|
    ***  ***  ***   * *

e|------------------------|
B|------------------------|
G|------------------------|
D|-------777--------------|
A|------------------------|
E|------------------------|

Chorus:

e|-----------------------------------------------------------------------|
B|-----------------------------------------------------------------------|
G|-----------------------------------------------------------------------|
D|--0~---0-0-0-0-0--5~---5-5-5-5-5--7~--7-7-7-7-7--4~--4-4-4--4-4--2-2-2-| X2
A|--0~---0-0-0-0-0--5~---5-5-5-5-5--7~--7-7-7-7-7--4~--4-4-4--4-4--2-2-2-|
E|--0~---0-0-0-0-0--5~---5-5-5-5-5--7~--7-7-7-7-7--4~--4-4-4--4-4--2-2-2-|

Verse:

Chorus:

e|------------------------|
B|------------------------|
G|------------------------|
D|--4~--4-4-4--4-4--2-2-2-|
A|--4~--4-4-4--4-4--2-2-2-|
E|--4~--4-4-4--4-4--2-2-2-|

Keyboard then:

e|-------------------------------|
B|-------------------------------|
G|-------------------------------|
D|---6~~~---9~~~---4~~~---7~~~---|  X2
A|---6~~~---9~~~---4~~~---7~~~---|
E|---6~~~---9~~~---4~~~---7~~~---|

Chorus:

Then:

e|------------------------|
B|------------------------|
G|------------------------|
D|--4~--4-4-4--4-4--2-2-2-|  X2
A|--4~--4-4-4--4-4--2-2-2-|
E|--4~--4-4-4--4-4--2-2-2-|

Intro:
Tap to rate this tab
# A B C D E F G H I J K L M N O P Q R S T U V W X Y Z