Song name
# A B C D E F G H I J K L M N O P Q R S T U V W X Y Z

Thousand Foot Krutch - Fire It Up tab

Fire It Up
Thousand Foot Krutch
Welcome to the Masquerade

Tabbed by Aaron Van Ee



e|---------------------------------------------------------------------------|
B|15-15-15-13-12-12b-12b-12-10-10--10h12h13p12p10s9h10h12p10p9-10p-----------|
G|17b--------------------------------------------------------------12-10-12br|
D|---------------------------------------------------------------------------|
A|---------------------------------------------------------------------------|
D|---------------------------------------------------------------------------|

e|------------------------------10--------------------------------12~13~15~17|
B|--------------------------10--10---------------------------11~13~----------|
G|-10-12-10---------10------10------10---10--10-12-12b-12-10-----------------|
D|----------12-10-12--12-10-------12--12-12--12------------------------------|
A|---------------------------------------------------------------------------|
D|---------------------------------------------------------------------------|
            *  *  * * *  * 
Tap to rate this tab
 
# A B C D E F G H I J K L M N O P Q R S T U V W X Y Z