Song name
# A B C D E F G H I J K L M N O P Q R S T U V W X Y Z

Thousand Foot Krutch - Fire It Up tab

Ok Its Perfect Look At My File On YOutube Check My Favs And There A Live Fire It
Up And Yes Theres Some Weird Stuff But My Sis Put That Stuff On


Intro
Drop D D A D G B E


 ----------------------------------|
 ----------------------------------|
 ----10---12---10---9--7-----------|
 --0----0----0----0---0-0----------|
 ----------------------------------|
 ----------------------------------|

 Chorus

 -----------------------------------|
 -----------------------------------|
 -----------------------------------|
 -0-3-0-5-0-3-0-5-0-3-0-------------|
 -0-3-0-5-0-3-0-5-0-3-0-------------|
 -0-3-0-5-0-3-0-5-0-3-0-------------|


 Post Chorus Or Main Riff


 ------------------------------------------------------------------|
 ------------------------------------------------------------------|
 ------------------------------------------------------------------|
 ------------------------------------3-3-3--5-5--------------------|
 -3-----------3---------3------------3-3-3--5-5--------------------|
 ---5-3-5-3-0--5-3-5-3-0--5-3-5-3-0--3-3-3--5-5--------------------|


 Verse
 ---------------------------------------------------------------------|
 ---------------------------------------------------------------------|
 ---------------------------------------------------------------------|
 -3-0-0-0-0-8-7-0-0-0-7---5-0----0-0-0-0-8-7-0-0-0---5-7-0------------|
 -3-0-0-0-0-8-7-0-0-0-7---5-0----0-0-0-0-8-7-0-0-0---5-7-0------------|
 -3-0-0-0-0-8-7-0-0-0-7---5-0----0-0-0-0-8-7-0-0-0---5-7-0------------|
  . . . . . . . . . . .          . . . . . . . . .
 With That You Can Figure The Rest Out

Pre Chorus

 -----------------------------------|
 -----------------------------------|
 -----------------------------------|
 -----------------------------------|
 -----------------------------------|
 -0-3-0-5-0-3-0-5-0-3-0-------------|

Brigde Same As Intro And For The Solo Check Version 2 .=Pm Thanks PLease RAte
Tap to rate this tab
 
# A B C D E F G H I J K L M N O P Q R S T U V W X Y Z