Song name
# A B C D E F G H I J K L M N O P Q R S T U V W X Y Z

Thousand Foot Krutch - Scream tab

Ok Im Pretty Sure This Tab Is Perfect This Isint 'y Tab Its The Guys Who Tabbed The 
Bass Albums Tab I Just Took The Bass And Turned Into Guitar
And Alittle Edited It
  Tuning: Drop D


E -------------------------------------------|
B -------------------------------------------|
G|-------------------------------------------|
D|--111--888--999--43---1-11-88889999431-----|
A|--111--888--999--43---1-11-88889999431-----|
D|--111--888--999--43---1-11-88889999431-----|

Verse Same As Intro Just Palm Muted
Pre Chorus
G----------|
D-444------|


Chorus
G|---------------------------------------|
D|--1------6------1------1-11-1-1-3-3-4--| x2
A|--1------6------1------1-11-1-1-3-3-4--|
D|--1------6------1------1-11-1-1-3-3-4--|

 Bridge
E ---------------------------------|
B ---------------------------------|
G|---------------------------------|
D|--1-------4------9------11-------| x2
A|--1-------4------9------11-------|
D|--1-------4------9------11-------|
Tap to rate this tab
# A B C D E F G H I J K L M N O P Q R S T U V W X Y Z