Song name
# A B C D E F G H I J K L M N O P Q R S T U V W X Y Z

Thousand Foot Krutch - Faith Love And Happiness tab

FAITH LOVE AND HAPPINESS
As recorded by Thousand Foot Krutch
(From the 2003 Album PHENOMENON)


Transcribed by Aidan (hairhockey@hotmail.com)

 Words and Music by Joel Bruyere/Steven Augustine/Trevor McNevan

Gtr I (D A D G B E) - 'distortion'


 Intro
  Q=90
 4/4
  Gtr I
|-------------------------|------------------------------|
|-------------------------|------------------------------|
|---------------8-7-------|--------------8-8-x-x-8-8-x-x-|
|-5-8-7--3--1-1-x-x--8--5-|-(5)-5-8-7--3-x-x-x-x-x-x-x-x-|
|-5-8-7--3--1-1-6-5--8--5-|-(5)-5-8-7--3-6-6-x-x-6-6-x-x-|
|-5-8-7--3--1-1------8--5-|-(5)-5-8-7--3-----x-x-----x-x-|


|-------------------------|---------------------------|
|-------------------------|------------------4-----4--|
|---------------8-7-------|------------------x-----x--|
|-5-8-7--3--1-1-x-x--8--5-|-(5)-5-8-7--3-1-1-1-1-1-1--|
|-5-8-7--3--1-1-6-5--8--5-|-(5)-5-8-7--3-1-1---1-1----|
|-5-8-7--3--1-1------8--5-|-(5)-5-8-7--3-1-1---1-1----|


 Verse
|----------|------------|-----------|-------|
|----------|------------|-----------|-------|
|----------|------------|-----------|-------|
|-5--------|-(5)--------|-10--------|-10----|
|-5--------|-(5)--------|--8--------|-10----|
|-5--------|-(5)--------|--8--------|-10----|


|----------|------------|-----------|-------------|
|----------|------------|-----------|-------------|
|----------|------------|-----------|------7-8-5--|
|-5--------|-(5)--------|-10--------|-1----x-x-x--|
|-5--------|-(5)--------|--8--------|-1----5-6-3--|
|-5--------|-(5)--------|--8--------|-1-----------|


   Chorus
||--------------------|-----------------------|
||o-------------------|-----------------------|
||--7-7---------------|-----------------------|
||--5-5--8-8--5-5-----|-1-1-1-1-1-1s3-3-3-3-3-|
||o-5-5--5-5--5-5-----|-1-1-1-1-1-1s3-3-3-3-3-|
||--5-5--5-5--5-5-----|-1-1-1-1-1-1s3-3-3-3-3-|


|-------------------|------------------||
|-------------------|-----------------o||
|-7-7---------------|------------------||
|-5-5--8-8--5-5-----|-8-8-8-8-3-3-3-3--||
|-5-5--5-5--5-5-----|-8-8-8-8-3-3-3-3-o||
|-5-5--5-5--5-5-----|-8-8-8-8-3-3-3-3--||


 Interlude
|-------------------------|---------------------------|
|-------------------------|------------------4-----4--|
|---------------8-7-------|------------------x-----x--|
|-5-8-7--3--1-1-x-x--8--5-|-(5)-5-8-7--3-1-1-1-1-1-1--|
|-5-8-7--3--1-1-6-5--8--5-|-(5)-5-8-7--3-1-1---1-1----|
|-5-8-7--3--1-1------8--5-|-(5)-5-8-7--3-1-1---1-1----|


 Verse 2
|----------|--------------|-----------|-------|
|----------|--------------|-----------|-------|
|----------|--------------|-----------|-------|
|-5--------|-8------------|-10--------|-10----|
|-5--------|-----5----(5)-|--8--------|-10----|
|-5--------|--------------|--8--------|-10----|


|----------|--------------|-----------|-------------|
|----------|--------------|-----------|-------------|
|----------|--------------|-----------|------7-8-5--|
|-5--------|-8------------|-10--------|-1----x-x-x--|
|-5--------|-----5----(5)-|--8--------|-1----5-6-3--|
|-5--------|--------------|--8--------|-1-----------|


   Chorus 2
||--------------------|-----------------------|
||o-------------------|-----------------------|
||--7-7---------------|-----------------------|
||--5-5--8-8--5-5-----|-1-1-1-1-1-1s3-3-3-3-3-|
||o-5-5--5-5--5-5-----|-1-1-1-1-1-1s3-3-3-3-3-|
||--5-5--5-5--5-5-----|-1-1-1-1-1-1s3-3-3-3-3-|


|-------------------|------------------||
|-------------------|-----------------o||
|-7-7---------------|------------------||
|-5-5--8-8--5-5-----|-8-8-8-8-3-3-3-3--||
|-5-5--5-5--5-5-----|-8-8-8-8-3-3-3-3-o||
|-5-5--5-5--5-5-----|-8-8-8-8-3-3-3-3--||


   Bridge
I think another guitar comes in and plays the 16th notes, but i transcribed it for only 
because its easily playable with one guitar
||--------------------------------------|-------------------------|
||o-------------------------------------|-------------------------|
||--------------------------------------|-----7-7-7-7-----7-7-8-7-|
||--10-10-12-12-12-12-10-10-12-12-13-12-|-7-7---------7-7---------|
||o-10-10-------------10-10-------------|-5-5---------5-5---------|
||--10-10-------------10-10-------------|-5-5---------5-5---------|


|-------------------------|-----------------------------||
|-------------------------|----------------------------o||
|-----8-8-8-8-----8-8-8-8-|-----5-5-5-5-----5-5-7-5-----||
|-8-8---------8-8---------|-3-3---------3-3-------------||
|-6-6---------6-6---------|-3-3---------3-3------------o||
|-6-6---------6-6---------|-3-3---------3-3-------------||


|-------------------------|-----------------|
|-------------------------|-----------------|
|-------------------------|-----------------|
|-10-10-10-10-10-10-10-10-|-7-7-7-7-7-7-7-7-|
|-10-10-10-10-10-10-10-10-|-5-5-5-5-5-5-5-5-|
|-10-10-10-10-10-10-10-10-|-5-5-5-5-5-5-5-5-|


|-----------------|-----------------|
|-----------------|-----------------|
|-----------------|-10-10-10-10-----|
|-8-8-8-8-8-8-8-8-|-10-10-10-10-----|
|-6-6-6-6-6-6-6-6-|--8--8--8--8-----|
|-6-6-6-6-6-6-6-6-|-----------------|


   Chorus 3
||--------------------|-----------------------|
||o-------------------|-----------------------|
||--7-7---------------|-----------------------|
||--5-5--8-8--5-5-----|-1-1-1-1-1-1s3-3-3-3-3-|
||o-5-5--5-5--5-5-----|-1-1-1-1-1-1s3-3-3-3-3-|
||--5-5--5-5--5-5-----|-1-1-1-1-1-1s3-3-3-3-3-|


|-------------------|------------------||
|-------------------|-----------------o||
|-7-7---------------|------------------||
|-5-5--8-8--5-5-----|-8-8-8-8-3-3-3-3--||
|-5-5--5-5--5-5-----|-8-8-8-8-3-3-3-3-o||
|-5-5--5-5--5-5-----|-8-8-8-8-3-3-3-3--||


   Outro
||--------------------------|------------------------------|
||o-------------------------|------------------------------|
||----------------8-7-------|--------------8-8-x-x-8-8-x-x-|
||--5-8-7--3--1-1-x-x--8--5-|-(5)-5-8-7--3-x-x-x-x-x-x-x-x-|
||o-5-8-7--3--1-1-6-5--8--5-|-(5)-5-8-7--3-6-6-x-x-6-6-x-x-|
||--5-8-7--3--1-1------8--5-|-(5)-5-8-7--3-----x-x-----x-x-|


|-------------------------|----------------------------||
|-------------------------|------------------4-----4--o||
|---------------8-7-------|------------------x-----x---||
|-5-8-7--3--1-1-x-x--8--5-|-(5)-5-8-7--3-1-1-1-1-1-1---||
|-5-8-7--3--1-1-6-5--8--5-|-(5)-5-8-7--3-1-1---1-1----o||
|-5-8-7--3--1-1------8--5-|-(5)-5-8-7--3-1-1---1-1-----||
Tap to rate this tab
 
# A B C D E F G H I J K L M N O P Q R S T U V W X Y Z