Song name
# A B C D E F G H I J K L M N O P Q R S T U V W X Y Z

Thousand Foot Krutch - The Part That Hurts The Most Is Me tab

Tabbed by: Zachary Wilson
E-Mail   : racinboomer@yahoo.com

******************************************
Artist: Thousand Foot Krutch
Album : Welcome to the Masquerade
Title : The Part That Hurts the Most is Me
******************************************

This has to be one of my favorite songs from this album. This is also the
way I play the song. When I play this along with listening to the song, it
sounds great, but may be off. If it is off and you can tell, send me an
e-mail and I'll fix it, otherwise it will remain the same. Thanks.

Tuning : Standard (EADGBe)

e|--------------------------------------------------------------------|
B|--------------------------------------------------------------------|
G|--------------------------------------------------------------------|
D|--------------------------------------------------------------------|
A|-0-5-4-05-4-04545-0-5-4-07-6-045450-5-4-05-4-04545-0-5-4-07-6-0-----|
E|---------------------------------------------------------------7676-|  (x2)

e|---------------------------------------------------------|
B|---------------------------------------------------------|
G|---------------------------------------------------------|
D|---------------------------------------------------------|
A|-----------------------------4------7------2------4------|
E|-4(x16)-7(x16)-2(x16)-4(x16)-4(x16)-7(x16)-2(x16)-4(x16)-|
   *      *      *      *      *      *      *      *
e|--------------------------------------------------------------|
B|--------------------------------------------------------------|
G|--------------------------------------------------------------|
D|-00004-----0-----2-----4-----00004-----0-----2-----x-----0000-|
A|-----4(x8)-0(x8)-2(x8)-4(x6)-4---4(x8)-0(x8)-2(x8)-x(x6)-x----|
E|-----x-----x-----x-----x-----x---x-----x-----x-----x-----x----|

e|--------------------------------------------------------------------|
B|--------------------------------------------------------------------|
G|--------------------------------------------------------------------|
D|--------------------------------------------------------------------|
A|-0-5-4-05-4-04545-0-5-4-07-6-045450-5-4-05-4-04545-0-5-4-07-6-0-----|
E|---------------------------------------------------------------7676-|

e|-----------------------------|
B|-----------------------------|
G|-----------------------------|
D|-----------------------------|
A|-----------------------------|
E|-4(x16)-7(x16)-2(x16)-4(x16)-|
   *      *      *      *
e|--------------------------------------------------------------|
B|--------------------------------------------------------------|
G|--------------------------------------------------------------|
D|-00004-----0-----2-----4-----00004-----0-----2-----x-----0000-|
A|-----4(x8)-0(x8)-2(x8)-4(x6)-4---4(x8)-0(x8)-2(x8)-x(x6)-x----|
E|-----x-----x-----x-----x-----x---x-----x-----x-----x-----x----|

e|--------------------------------------------------------------------|
B|--------------------------------------------------------------------|
G|--------------------------------------------------------------------|
D|--------------------------------------------------------------------|
A|-0-5-4-05-4-04545-0-5-4-07-6-045450-5-4-05-4-04545-0-5-4-07-6-0-----|
E|---------------------------------------------------------------7676-|  (x2)

e|-----------------------------------|
B|-----------------------------------|
G|-----------------------------------|
D|-1-0-xx-xx---xxxx1-0-xx-xx-x-xxxx--|
A|-1-0-xx-xx---xxxx1-0-xx-xx-x-xxxx--|
E|-1-0-xx-xx---xxxx1-0-xx-xx-x-xxxx--|
       v^ ^v   v^v^    v^ ^v v v^v^

e|---------------There are harmonics used here---------------|
B|---------------------Listen to the song--------------------|
G|----------------------------(+)----------------------------|
D|-1-0-xx-xx---xxxx1-0-xx-xx-x-xxxx1-0-xx-xx---xxxx1-0-xx-xx-|
A|-1-0-xx-xx---xxxx1-0-xx-xx-x-xxxx1-0-xx-xx---xxxx1-0-xx-xx-|
E|-1-0-xx-xx---xxxx1-0-xx-xx-x-xxxx1-0-xx-xx---xxxx1-0-xx-xx-|
       v^ ^v   v^v^    v^ ^v v v^v^    v^ ^v   v^v^    v^ ^v

e|-------------------------------------------------------------------
B|-------------------------------------------------------------------
G|-------------------------------------------------------------------
D|-00004-----0-----2-----4-----00004-----0-----2-----x-----000-0-0-0- <-\
A|-----4(x8)-0(x8)-2(x8)-4(x6)-4---4(x8)-0(x8)-2(x8)-x(x4)-x---------    \
E|-----x-----x-----x-----x-----x---x-----x-----x-----x-----x---------    |
   1+2+                        3+4+                        1e+a2e+a3     |
                           Timing is a little different here on the D string
                           Again, listen to song to better figure it out


e|----------------------------------------------------------|
B|----------------------------------------------------------|
G|----------------------------------------------------------|
D|-4-----0-----2-----4-----00004-----0-----2-----x-----0000-|
A|-4(x8)-0(x8)-2(x8)-4(x6)-4---4(x8)-0(x8)-2(x8)-x(x6)-x----|
E|-x-----x-----x-----x-----x---x-----x-----x-----x-----x----|

e|-----------------------------------|
B|-----------------------------------|
G|-----------------------------------|
D|-----------------------------------|
A|-0-5-4-05-4-04545-0-5-4-07-6-0-----|
E|------------------------------7676-|

Please Rate and Comment, constructive criticism is also welcome, as this is my first tab.

*****************************
| v  - strum down
| ^  - strum up
|(+) - harmonics used
| *  - palm mute
| x  - muted string
*****************************
Tap to rate this tab
 
# A B C D E F G H I J K L M N O P Q R S T U V W X Y Z