Guitaretab - guitar tabs
Song name
# A B C D E F G H I J K L M N O P Q R S T U V W X Y Z

Thousand Foot Krutch - Breathe You In tab

Hey guys! :D This is my first tab, but its pretty accurate.. 
Actually its very accurate haha. I was listening to this amazing song, 
picked up my guitar and played it by ear. I didnt take the time to tab out
the little guitar riffs in the background, I just got the main stuff. 
I hope you like it.

Intro

D----------------------------------------------------|
A----------------------------------------5(bend)-----|
F-5---4/7-5-2-------4/5-4-2-------5(bend)------------|
C-5-------------5-------------3--------------------7-|
G-3-------------5-------------3--------------------7-|
C---------------3-------------1--------------------5-|


Verse

D------------|
A------------|
F-5----------|
C-5--5--3--7-| x2
G-3--5--3--7-|
C----3--1--5-|


Pre-Chorus

D------------------|
A------------------|
F-------5-----7----|
C-2--3--5--5--7--3-|
G-2--3--3--5--5--3-|
C-0--1-----3-----1-|


Chorus
[ Tab from: http://www.guitaretab.com/t/thousand-foot-krutch/226668.html ]
D------------|
A------------|
F-5----------|
C-5--5--7--3-| x2
G-3--5--7--3-|
C----3--5--1-|


Verse 2

D------------|
A------------|
F-5----------|
C-5--5--3--7-| Just once
G-3--5--3--7-|
C----3--1--5-|


Pre-Chorus

D------------------|
A------------------|
F-------5-----7----|
C-2--3--5--5--7--3-|
G-2--3--3--5--5--3-|
C-0--1-----3-----1-|


Chorus

D------------|
A------------|
F-5----------|
C-5--5--7--3-| x2
G-3--5--7--3-|
C----3--5--1-|


Bridge

D------------------------------|
A------------------------------|
F-7-----5-----7-----5-----7----|
C-7--3--5--5--7--3--5--5--7--3-|
G-5--3--3--5--5--3--3--5--5--3-|
C----1-----3-----1-----3-----1-|


Chorus

D------------|     
A------------|
F-5----------|
C-5--5--7--3-| x6  
G-3--5--7--3-|
C----3--5--1-|

End with :

D---|
A---|
F-5-|
C-5-|
G-3-|
C---|

Thank you! 
I know what you're thinking, "Wow! Kevin did a great job!" haha 
leave comments with corrections if any, and rate it fasho :D
Related for Breathe You In tab
Breathe You In chords by Thousand Foot Krutch