Song name
# A B C D E F G H I J K L M N O P Q R S T U V W X Y Z

Thousand Foot Krutch - Forward Motion tab

So I've been looking around and apparently there's no full tab for this song... -.- I'm 
try to do the whole thing correctly...

INTRO

GUITAR 1
e|----------------------|      |----------------------|
b|-3333-----------------|x5 |-----3b3--------3b3------|
g|------5555-33-22-3333-|      |----------------------|
d|----------------------|      |-111--------333-------|
a|----------------------|      |-111--------333-------| Guitar 1 bends up a half
d|----------------------|      |-111--------333-------| step while Guitar 2 palm mutes
GUITAR 2
e|-------------------------------------------------|
b|-------------------------------------------------|
g|-------------------------------------------------|
d|-8888888888888888-11111111-----xx-xxx-----xx-xxx-|
a|-8888888888888888-11111111-----xx-xxx-----xx-xxx-|
d|-8888888888888888-11111111-----xx-xxx-----xx-xxx-|

CHORUS

GUITAR 1
e|----------------------|      |----------------------|
b|-3333-----------------|x3 |----------------3b3------|
g|------5555-33-22-3333-|      |-----2b2--------------|
d|----------------------|      |-111--------333-------|
a|----------------------|      |-111--------333-------| Again, Guitar 1 bends up a half
d|----------------------|      |-111--------333-------| step while Guitar 2 palm mutes
GUITAR 2
e|-------------------------------------------------|
b|-------------------------------------------------|
g|-------------------------------------------------|
d|-8888888888888888-11111111-----xx-xxx-----xx-xxx-|
a|-8888888888888888-11111111-----xx-xxx-----xx-xxx-|
d|-8888888888888888-11111111-----xx-xxx-----xx-xxx-|

VERSE

GUITAR 2
e|----------------------------------------------|
b|----------------------------------------------|
g|----------------------------------------------|
d|-8~-xx-x8~-1~-5555-3333-8~-xx-x8~-1~-33333333-|
a|-8~-xx-x8~-1~-5555-3333-8~-xx-x8~-1~-33333333-|
d|-8~-xx-x8~-1~-5555-3333-8~-xx-x8~-1~-33333333-|

PRECHORUS

GUITAR 1
e|---------------------------------------------------------|
b|-------------------------3-------------------------------|
g|-3-2-3-5-3-2-3-5-3-2-3-5---5-3-2-3-2-3-5-3-2-3-5-3-2-3-5-|
d|---------------------------------------------------------|
a|---------------------------------------------------------|
d|---------------------------------------------------------|

GUITAR 2
e|-------------------------------------|
b|-------------------------------------|
g|-------------------------------------|
d|-------------------------------------|
a|-------------------------------------|
d|-55555555-33333333-11111111-33333333-|
      xxxxxxxx    xxxxxxxx  xxxxxxxx   xxxxxxxxx

CHORUS x2

VERSE (if you really want the acoustic part for verse 2 say so in the comments...)

CHORUS x2

BRIDGE

GUITAR 1 = INTRO RIFF (like it does through the whole song practically...)

GUITAR 2
e|---------------------------------------------------------------------|
b|-----------------------------------------------------------------3b3-|
g|-----------------------------------------------------------2b2-------|
d|-1111111111111111-3333333333333333----------------------111---111----|
a|-1111111111111111-3333333333333333----------------------111---111----|
d|-1111111111111111-3333333333333333-55555555-55-55-55-55-111---111----|
       xxxxxxxxxxxxxxxx   xxxxxxxxxxxxxxxx    xxxxxxxx          xx         xx
con'd
e|---------------------------------------------------------------------|
b|-----------------------------------------------------------------3b3-|
g|-----------------------------------------------------------2b2-------|
d|-1111111111111111-3333333333333333----------------------111---333----|
a|-1111111111111111-3333333333333333----------------------111---333----|
d|-1111111111111111-3333333333333333-55555555-55-55-55-55-111---333----|
       xxxxxxxxxxxxxxxx   xxxxxxxxxxxxxxxx    xxxxxxxx          xx         xx

PRECHORUS (acoustic, piano)

CHORUS x2

OUTRO

GUITAR 1
e|--------------------|
b|-----3b3--------3b3-|
g|--------------------|
d|-111--------333-----|
a|-111--------333-----|
d|-111--------333-----|

GUITAR 2
e|-----------------------|
b|-----------------------|
g|-----------------------|
d|---xx-xxx-------xx-xxx-|
a|---xx-xxx-------xx-xxx-|
d|---xx-xxx-------xx-xxx-|

btw the guitar arrangement is ONE of the many ways that the song can be played with two 
(because there ARE two guitars.) you can choose which parts you want to play and play 
whole song on one guitar, but that's your choice.

God Bless, comments, ratings, and corrections are welcome.
Tap to rate this tab
 
# A B C D E F G H I J K L M N O P Q R S T U V W X Y Z