Song name
# A B C D E F G H I J K L M N O P Q R S T U V W X Y Z

Thousand Foot Krutch - Favorite Disease tab

My first full tab so please rate. any questions please email me at quinten.steenwyk@charter.net

I didn't add the intro because there are already alot of tabs for it and i am too 
lazy to add it. The only problem is the intro is in a different tuning than my 
tab. it is possible to play the intro in Drop D it is just a little harder.

Drop D tuning
 
(Intro Plays)

|-------------------------------------------------------|                   
|-------------------------------------------------------|   
|-------------------------------------------------------| x2  
|-1------5------3------8------3-------------------------|
|-1--x8--5--x8--3--x8--8--x4--3--x4---------------------|
|-1------5------3------8------3-------------------------|
 pm.............................


|------------------------------------------------------------------------------------------|
|------------------------------------------------------------------------------------------|
|------------------------------------------------------------------------------------------|
|-5-5--1-1--8-8--3-3---5-5--1-1--8-8--10-10---5-5--1-1--3-3--8-8---5-5--1-1--8-8--3-3------|
|-5-5--1-1--8-8--3-3---5-5--1-1--8-8--10-10---5-5--1-1--3-3--8-8---5-5--1-1--8-8--3-3------|
|-5-5--1-1--8-8--3-3---5-5--1-1--8-8--10-10---5-5--1-1--3-3--8-8---5-5--1-1--8-8--3-3------|

(intro part plays again)


|-------------------------------------------------------|
|-------------------------------------------------------|    
|-------------------------------------------------------| x2 
|-1------5------3------8------3-------------------------|
|-1--x8--5--x8--3--x8--8--x4--3--x4---------------------|
|-1------5------3------8------3-------------------------|
 pm.............................


|----------------------------------------------------------------------------------------------|
|----------------------------------------------------------------------------------------------|
|----------------------------------------------------------------------------------------------|
|-5-5--1-1--8-8--3-3---5-5--1-1--8-8--10-10---5-5--1-1--3-3--8-8---5-5--1-1--8-8--3-3----------|
|-5-5--1-1--8-8--3-3---5-5--1-1--8-8--10-10---5-5--1-1--3-3--8-8---5-5--1-1--8-8--3-3----------|
|-5-5--1-1--8-8--3-3---5-5--1-1--8-8--10-10---5-5--1-1--3-3--8-8---5-5--1-1--8-8--3-3----------|



|----------------------------------------------------------------------------------------------|
|----------------------------------------------------------------------------------------------|
|----------------------------------------------------------------------------------------------|
|-5-----1-----8-----3-----4-----5-----1-----8-----3~-------------------------------------------|
|-5-x8--1-x8--8-x8--3-x4--4-x4--5-x8--1-x8--8-x8--3~-x8----------------------------------------|
|-5-----1-----8-----3-----4-----5-----1-----8-----3~-------------------------------------------|



(Clean)
|----------------------------------------------------------------------------------------------|
|----------------------------------------------------------------------------------------------|
|----------------------------------------------------------------------------------------------|
|-----5------1------8------3-5------5------1------8--------------------------------------------|
|---5------1------8------3--------5------1------8---3------------------------------------------|
|-5------1------8------3--------5------1------8------------------------------------------------|



|----------------------------------------------------------------------------------------------|
|----------------------------------------------------------------------------------------------|
|-5-5--1-1--3-3--8-8--5-5--1-1--8-8--3-3-------------------------------------------------------|
|-5-5--1-1--3-3--8-8--5-5--1-1--8-8--3-3-------------------------------------------------------|
|-5-5--1-1--3-3--8-8--5-5--1-1--8-8--3-3-------------------------------------------------------|
|----------------------------------------------------------------------------------------------|


|----------------------------------------------------------------------------------------------| 
|----------------------------------------------------------------------------------------------|
|----------------------------------------------------------------------------------------------|x2
|-5-5--1-1--8-8--3-3---5-5--1-1--8-8--10-10---5-5--1-1--3-3--8-8---5-5--1-1--8-8--3-3--5~------|
|-5-5--1-1--8-8--3-3---5-5--1-1--8-8--10-10---5-5--1-1--3-3--8-8---5-5--1-1--8-8--3-3--5~------|
|-5-5--1-1--8-8--3-3---5-5--1-1--8-8--10-10---5-5--1-1--3-3--8-8---5-5--1-1--8-8--3-3--5~------|

(The last 5 is played the second time through only)
Tap to rate this tab
 
# A B C D E F G H I J K L M N O P Q R S T U V W X Y Z