Thousand Foot Krutch - Favorite Disease tab

Intro/verse
e|----------------------------------------------------------------------------|
B|----------------------------------------------------------------------------|
G|----------------------------------------------------------------------------|
D|--3---3---3---3---2---2---2---2-------------------------3--------5----------|all through verse
A|----5---5---5---5---3---3---3---3--5---5---5---5------5---5----7---5--------|
D|-------------------------------------8---8---8---8--8-------10--------------|

Pre-chorus
|-------------------------------------------------------|                   
|-------------------------------------------------------|   
|-------------------------------------------------------| x2  
|-1------5------3------8------3-------------------------|
|-1--x8--5--x8--3--x8--8--x4--3--x4---------------------|
|-1------5------3------8------3-------------------------|
 pm.............................

Chorus
|------------------------------------------------------------------------------------------|
|------------------------------------------------------------------------------------------|
|------------------------------------------------------------------------------------------|
|-5-5--1-1--8-8--3-3---5-5--1-1--8-8--10-10---5-5--1-1--3-3--8-8---5-5--1-1--8-8--3-3------|
|-5-5--1-1--8-8--3-3---5-5--1-1--8-8--10-10---5-5--1-1--3-3--8-8---5-5--1-1--8-8--3-3------|
|-5-5--1-1--8-8--3-3---5-5--1-1--8-8--10-10---5-5--1-1--3-3--8-8---5-5--1-1--8-8--3-3------|

(intro part plays again)

Pre-chorus
|-------------------------------------------------------|
|-------------------------------------------------------|    
|----------------------3--------------------------------| x2 
|-1------5------3------3------3-------------------------|
|-1--x8--5--x8--3--x8--1--x4--3--x4---------------------|
|-1------5------3-------------3-------------------------|
 pm.............................

chorus
|----------------------------------------------------------------------------------------------|
|----------------------------------------------------------------------------------------------|
|-----------3-3------------------3-3--5-5-------------------3-3-------------3-3----------------|
|-5-5--1-1--3-3--3-3---5-5--1-1--3-3--5-5----5-5--1-1--3-3--3-3---5-5--1-1--3-3---3-3----------|
|-5-5--1-1--1-1--3-3---5-5--1-1--1-1--3-3----5-5--1-1--3-3--1-1---5-5--1-1--1-1---3-3----------|
|-5-5--1-1-------3-3---5-5--1-1--------------5-5--1-1--3-3--------5-5--1-1--------3-3----------|

Bridge
|----------------------------------------------------------------------------------------------|
|----------------------------------------------------------------------------------------------|
|-------------3-----------------------------3--------------------------------------------------|
|-5-----1-----3-----3-----4-----5-----1-----3-----3~-------------------------------------------|
|-5-x8--1-x8--1-x8--3-x4--4-x4--5-x8--1-x8--1-x8--3~-x8----------------------------------------|
|-5-----1-----------3-----4-----5-----1-----------3~-------------------------------------------|



(Clean)
|----------------------------------------------------------------------------------------------|
|----------------------------------------------------------------------------------------------|
|---------------------3----------------------------3-------------------------------------------|
|-----5------1------3------3-5------5------1------3--------------------------------------------|
|---5------1------1------3--------5------1------1----3-----------------------------------------|
|-5------1-------------3--------5------1-------------------------------------------------------|


|----------------------------------------------------------------------------------------------|
|----------------------------------------------------------------------------------------------|
|----------------3-3------------3-3------------------------------------------------------------|
|-5-5--1-1--3-3--3-3--5-5--1-1--3-3--3-3-------------------------------------------------------|
|-5-5--1-1--3-3--1-1--5-5--1-1--1-1--3-3-------------------------------------------------------|
|-5-5--1-1--3-3-------5-5--1-1-------3-3-------------------------------------------------------|


|----------------------------------------------------------------------------------------------| 
|----------------------------------------------------------------------------------------------|
|-----------3-3-------------------3-3-----------------------------------------------------------|x2
|-5-5--1-1--3-3--3-3---5-5--1-1---3-3---5-5---5-5--1-1--3-3--8-8---5-5--1-1--8-8--3-3--5~------|
|-5-5--1-1--1-1--3-3---5-5--1-1---1-1---3-3---5-5--1-1--3-3--8-8---5-5--1-1--8-8--3-3--5~------|
|-5-5--1-1-------3-3---5-5--1-1---------------5-5--1-1--3-3--8-8---5-5--1-1--8-8--3-3--5~------|
Tap to rate this tab
 
# A B C D E F G H I J K L M N O P Q R S T U V W X Y Z