Song name
# A B C D E F G H I J K L M N O P Q R S T U V W X Y Z

Thousand Foot Krutch - Fire It Up tab

TITLE: FIRE IT UP - TAB
ARTISTS: THOUSDAND FOOD KRUTCH
TABBED BY: N8

TUNNING: DADGBE

INTRO

	E|------------------------------------------|
	B|------------------------------------------|
	G|------------------------------------------|
	D|--0-3-0-5-0-3-0-2-0---0-3-0-5-0-3-0-2-----|
	A|--------------------------------------4-5-|
	D|------------------------------------------|

	DRUMS JOIN IN
	E|------------------------------------------|
	B|------------------------------------------|
	G|------------------------------------------|
	D|--0-3-0-5-0-3-0-2-0---0-3-0-5-0-3-0-2-----|
	A|------------------------------------------|
	D|------------------------------------------|

CHORUS - I'VE GOT A BAD CASE....
	E|------------------------------------------------------|
	B|------------------------------------------------------|
	G|------------------------------------------------------|
	D|--0-3-0-5-0-3-0-5-00-3-0---0-3-0-5-0-3-0-5-00-3-0X-XX-|
	A|--0-3-0-5-0-3-0-5-00-3-0---0-3-0-5-0-3-0-5-00-3-0X-XX-|
	D|--0-3-0-5-0-3-0-5-00-3-0---0-3-0-5-0-3-0-5-00-3-0X-XX-|  X2

	FIRE IT UP!!!
	E|--------------------------------------------------------|
	B|--------------------------------------------------------|
	G|-------------------------------------------------333-55-|
	D|--10--------------10-------------10--------------333-55-|
	A|-----10-8-10-8-------10-8-10-8------10-8-10-8----333-55-|
	D|---------------12--------------12-------------12--------| X2

VERSE:
	     |P.M.--------|    |P.M.--------|
	E|----------------------------------------|
	B|----------------------------------------|
	G|----------------------------------------|
	D|--0-000000-000000-5-0-000000-000000-5-7-|
	A|--0-000000-000000-5-0-000000-000000-5-7-|
	D|--0-000000-000000-5-0-000000-000000-5-7-| X2

	LET YOUR LIGHT SHINE (MUFFLED)
	E|-------------------------|
	B|-------------------------|
	G|-------------------------|
	D|-------------------------|
	A|-------------------------|
	D|--0-3-0-5-0-3-0-5-00-3-0-| X2

CHORUS

INTRO

VERSE

CHORUS

GUITAR RYTHM (PLAY DURING SOLO):

E|------------------------------|
B|------------------------------|
G|------------------------------|
D|--10-5-3-5-3-5-0--3-5-3-5-3-5-|
A|--10-5-3-5-3-5-0--3-5-3-5-3-5-|
D|--10-5-3-5-3-5-0--3-5-3-5-3-5-| X4


ANY QUESTIONS YOU CAN E-MAIL ME AT: N8AF84@GMAIL.COM

THANKS, AND ENJOY!
Tap to rate this tab
 
# A B C D E F G H I J K L M N O P Q R S T U V W X Y Z