Song name
# A B C D E F G H I J K L M N O P Q R S T U V W X Y Z

Thousand Foot Krutch - Take It Out On Me tab

Drop D Tuning
*=palm mute
/=slide
Intro
-----------------------|
-----------------------|
-----------------------|
--00-0-10-3-00-08757---|  X2
--00-0-10-3-00-08757---|
--00-0-10-3-00-08757---|
  ** * ** * ** *****
-----------------------|
-----------------------|
-----------------------|
--00-0-10-3-00-08757---|  X2
--00-0-10-3-00-08757---|
--00-0-10-3-00-08757---|
Verse 1
-----------------------|
-----------------------|
-----------------------|
--00-0-10-3-00-08757---|  X3
--00-0-10-3-00-08757---|
--00-0-10-3-00-08757---|
  ** * ** * ** *****
The fourth time, just do
--------------------|
--------------------|
--------------------|
--00-0-10-3---------|
--00-0-10-3---------|
--00-0-10-3---------|
One, Two, Three, Four!
Pre-Chorus
------------------------------------------------------------------|
---------------------------------------------------------------10-|
----10-9-10--10-9-10--10-9-10---------10-9-10--10-9-10--10-9-10---|
--0---------8-------3--------7-8-10--0-------8--------3-----------|
--0---------8-------3--------7-8-10--0-------8--------3-----------|
--0---------8-------3--------7-8-10--0-------8--------3-----------|
Chorus
-------------------------------------------------|
-------------------------------------------------|
-------------------------------------------------|
--22--1010--555575455--2222-10101010-555575455---|  X2
--22--1010--555575455--2222-10101010-555575455---|
--22--1010--555575455--2222-10101010-555575455---|
Post Chorus
-----------------------|
-----------------------|
-----------------------|
--00-0-10-3-00-08757---|  X2
--00-0-10-3-00-08757---|
--00-0-10-3-00-08757---|
Verse 2
-----------------------|
-----------------------|
-----------------------|
--00-0-10-3-00-08757---|  X3
--00-0-10-3-00-08757---|
--00-0-10-3-00-08757---|
  ** * ** * ** *****
The fourth time, just do
--------------------|
--------------------|
--------------------|
--00-0-10-3---------|
--00-0-10-3---------|
--00-0-10-3---------|
Pre-Chorus
------------------------------------------------------------------|
---------------------------------------------------------------10-|
----10-9-10--10-9-10--10-9-10---------10-9-10--10-9-10--10-9-10---|
--0---------8-------3--------7-8-10--0-------8--------3-----------|
--0---------8-------3--------7-8-10--0-------8--------3-----------|
--0---------8-------3--------7-8-10--0-------8--------3-----------|
Chorus
-------------------------------------------------|
-------------------------------------------------|
-------------------------------------------------|
--22--1010--555575455--2222-10101010-555575455---|  X2
--22--1010--555575455--2222-10101010-555575455---|
--22--1010--555575455--2222-10101010-555575455---|
Solo/Bridge
---------------------|
---------------------|
---------------------|
--1212-12-13/10  X12-|
--1212-12-13/10------|
--1212-12-13/10------|
Pre-Chorus
------------------------------------------------------------------|
---------------------------------------------------------------10-|
----10-9-10--10-9-10--10-9-10---------10-9-10--10-9-10--10-9-10---|
--0---------8-------3--------7-8-10--0-------8--------3-----------|
--0---------8-------3--------7-8-10--0-------8--------3-----------|
--0---------8-------3--------7-8-10--0-------8--------3-----------|
Chorus
-------------------------------------------------|
-------------------------------------------------|
-------------------------------------------------|
--22--1010--555575455--2222-10101010-555575455---|  X2
--22--1010--555575455--2222-10101010-555575455---|
--22--1010--555575455--2222-10101010-555575455---|
Outro
------------------|
------------------|
------------------|
--1212-12-13/10---|  X3
--1212-12-13/10---|
--1212-12-13/10---|
The Fourth Time, Play
---------------|
---------------|
---------------|
--1212-0-8757--|
--1212-0-8757--|
--1212-0-8757--|
Tap to rate this tab
# A B C D E F G H I J K L M N O P Q R S T U V W X Y Z