Guitaretab - guitar tabs
Song name
# A B C D E F G H I J K L M N O P Q R S T U V W X Y Z

Thousand Foot Krutch - War Of Change tab

"War of Change," The End is Where We Begin

This is how it's played in this video: http://www.youtube.com/watch?v=xXi1n0Tvydg
It might not be 100% correct. But it sounds fine to me!

Tuning: Drop Db/C#

Intro/Verse (clean)

Eb|-9--9--9--9--7--7--7--7--9--9--9--9--7--7--7--10------------|
Bb|---7--7--7--7--7--7--7--7--7--7--7--7--7--7--7---7----------|
Gb|------------------------------------------------------------|
Db|------------------------------------------------------------| rpt until breakdown
Ab|------------------------------------------------------------|
Db|------------------------------------------------------------|

Breakdown/Prechorus (aka impossible to hear)
[ Tab from: http://www.guitaretab.com/t/thousand-foot-krutch/305813.html ]
Eb|-----9-5-------5-7----------9-5-------5-7---------------|
Bb|-77------7-77-----77-----------7-77-----77--------------|
Gb|------------------------6s9--------------------6s4~-----|
Db|--------------------------------------------------------|
Ab|--------------------------------------------------------|
Db|--------------------------------------------------------|

Chorus

Eb|--------------------------------------------|
Bb|--------------------------------------------|
Gb|-------------------44444444-222222----------|
Db|-44444444-22222222-44444444-222222--------2~| rpt x2
Ab|-44444444-22222222-22222222-000000--------2~|
Db|-44444444-22222222------------------------2~|

Intro/Verse repeat
Breakdown/Prechorus repeat
Chorus repeat

Bridge

Eb|----------------------------|
Bb|----------------------------|
Gb|----------------------------|
Db|-0-7-3-2-00-0~-7-3-2-0-00-0-| repeat
Ab|-0-7-3-2-00-0~-7-3-2-0-00-0-|
Db|-0-7-3-2-00-0~-7-3-2-0-00-0-|
----------xx-------------xx

Chorus repeat x2
Ending (modified intro)
Related for War Of Change tab
War Of Change chords by Thousand Foot Krutch