Song name
# A B C D E F G H I J K L M N O P Q R S T U V W X Y Z

Thousand Foot Krutch - Let The Sparks Fly tab

Artist: Thousand Foot Krutch
Song: Let the Sparks Fly
From the album, "The End Is Where We Begin"

Awesome song, learned this by ear as soon as I heard it! If you have any corrections 
please message me at "Rawk4Life". Thank you!

This song is extremely repetitive, so I'm not going tab out each and every note, just 
pay attention to how many times each riff is played, which is shown on the right side of 
each line.

Tab Key:
*=Palm Mute

INTRO
"Let the sparks fly..."
E |--------------------------------------------------------|
B |--------------------------------------------------------|
G |--------------------------------------------------------|
D |--------------------------------------------------------| 1x
A |--------------------------------------------------------|
D |-0-6-5-0-3-0--0-6-5-0-3-5--0-6-5-0-3-0--0--3--0-2-3-2---|
    * * * * * *  * * * * * *  * * * * * *  *  *  * * * *
"There's no such thing as maybe..."
E |--------------------------------------------------------|
B |--------------------------------------------------------|
G |--------------------------------------------------------|
D |-0-6-5-0-3-0--0-6-5-0-3-5--0-6-5-0-3-0--0--3--0-2-3-2---| 2x
A |-0-6-5-0-3-0--0-6-5-0-3-5--0-6-5-0-3-0--0--3--0-2-3-2---|
D |-0-6-5-0-3-0--0-6-5-0-3-5--0-6-5-0-3-0--0--3--0-2-3-2---|

VERSE
"Give me one if it's real..."
E |---------------------------------------------------|
B |---------------------------------------------------|
G |---------------------------------------------------|
D |---------------------------------------------------| 1x
A |---------------------------------------------------|
D |-0-6-000-6--0-5-000-5--0-3-000-3--0-2-00-3-2-0-0---|
    * * *** *  * * *** *  * * *** *  * * ** * * * *

E |---------------------------------------------------|
B |---------------------------------------------------|
G |---------------------------------------------------|
D |---------------------------------------------0-0---| 1x
A |---------------------------------------------0-0---|
D |-0-6-000-6--0-5-000-5--0-3-000-3--0-2-00-3-2-0-0---|
    *   ***    *   ***    *   ***    *   **
E |---------------------------------------------------|
B |---------------------------------------------------|
G |---------------------------------------------------|
D |-0-6-0-0-6--0-5-0-0-5--0-3-0-0-3--0-2-00-3-2-0-0---| 2x
A |-0-6-0-0-6--0-5-0-0-5--0-3-0-0-3--0-2-00-3-2-0-0---|
D |-0-6-0-0-6--0-5-0-0-5--0-3-0-0-3--0-2-00-3-2-0-0---|
                                         **
CHORUS
"Let me take you into the light..."
E |-----------------|
B |-----------------|
G |-----------------|
D |-8---0---3---5---| 2x
A |-8---0---3---5---|
D |-8---0---3---5---|

POST CHORUS
"There's no such thing as maybe..."
E |--------------------------------------------------------|
B |--------------------------------------------------------|
G |--------------------------------------------------------|
D |-0-6-5-0-3-0--0-6-5-0-3-5--0-6-5-0-3-0--0--3--0-2-3-2---| 2x
A |-0-6-5-0-3-0--0-6-5-0-3-5--0-6-5-0-3-0--0--3--0-2-3-2---|
D |-0-6-5-0-3-0--0-6-5-0-3-5--0-6-5-0-3-0--0--3--0-2-3-2---|

VERSE 2
"Give me one good reason..."
For the first part of the verse, there's no guitar, just play this when it comes up back 
in with this.
The second time you play through this, don't play the part in parentheses.

E |-----------------------------------------------------|
B |-----------------------------------------------------|
G |-----------------------------------------------------|
D |-0-6-0-0-6--0-5-0-0-5--0-3-0-0-3--0-2-00-3-2-(0-0)---| 2x
A |-0-6-0-0-6--0-5-0-0-5--0-3-0-0-3--0-2-00-3-2-(0-0)---|
D |-0-6-0-0-6--0-5-0-0-5--0-3-0-0-3--0-2-00-3-2-(0-0)---|
                                         **
CHORUS
"Let me take you into the light..."
E |-----------------|
B |-----------------|
G |-----------------|
D |-8---0---3---5---| 2x
A |-8---0---3---5---|
D |-8---0---3---5---|

POST CHORUS
"There's no such thing as maybe..."
E |--------------------------------------------------------|
B |--------------------------------------------------------|
G |--------------------------------------------------------|
D |-0-6-5-0-3-0--0-6-5-0-3-5--0-6-5-0-3-0--0--3--0-2-3-2---| 2x
A |-0-6-5-0-3-0--0-6-5-0-3-5--0-6-5-0-3-0--0--3--0-2-3-2---|
D |-0-6-5-0-3-0--0-6-5-0-3-5--0-6-5-0-3-0--0--3--0-2-3-2---|

BRIDGE
E |---------------------------------------------------|
B |---------------------------------------------------|
G |---------------------------------------------------|
D |---------------------------------------------------| 1x
A |---------------------------------------------------|
D |-0-6-000-6--0-5-000-5--0-3-000-3--0-2-00-3-2-0-0---|
    * * *** *  * * *** *  * * *** *  * * ** * * * *

E |-------------------------------------------------|
B |-------------------------------------------------|
G |-------------------------------------------------|
D |-------------------------------------------------| 1x
A |-------------------------------------------------|
D |-0-6-000-6--0-5-000-5--0-3-000-3--0-2-00-3-2-0---|
    *   ***    *   ***    *   ***    *   **
CHORUS (For this last chorus,  I there's a guitar playing arpeggios, but the guitar is 
kind of subtle and it's not needed, so I'm not going to tab it out.)
"Let me take you into the light..."
E |-----------------|
B |-----------------|
G |-----------------|
D |-8---0---3---5---| 4x
A |-8---0---3---5---|
D |-8---0---3---5---|

OUTRO
"There's no such thing as maybe..." (The second time don't play the part in parentheses.)
E |----------------------------------------------------------|
B |----------------------------------------------------------|
G |----------------------------------------------------------|
D |-0-6-5-0-3-0--0-6-5-0-3-5--0-6-5-0-3-0--0--3--(0-2-3-2)---| 2x
A |-0-6-5-0-3-0--0-6-5-0-3-5--0-6-5-0-3-0--0--3--(0-2-3-2)---|
D |-0-6-5-0-3-0--0-6-5-0-3-5--0-6-5-0-3-0--0--3--(0-2-3-2)---|

Finished!
Tap to rate this tab
 
# A B C D E F G H I J K L M N O P Q R S T U V W X Y Z