Song name
# A B C D E F G H I J K L M N O P Q R S T U V W X Y Z

Thousand Foot Krutch - Take It Out On Me tab

Take It Out On Me
Drop D
Intro: (Palm muted)
E:--------------------------------------------------|
B:--------------------------------------------------|
G:--------------------------------------------------|
D:--------------------------------------------------|
A:--------------------------------------------------|
D:-00-0-10/3--00-0-8-7-3-5--00-0-10/3--00-0-8-7-3-5-|

E:--------------------------------------------------|
B:--------------------------------------------------|
G:--------------------------------------------------|
D:-00-0-10/3--00-0-8-7-3-5--00-0-10/3--00-0-8-7-3-5-|
A:-00-0-10/3--00-0-8-7-3-5--00-0-10/3--00-0-8-7-3-5-|
D:-00-0-10/3--00-0-8-7-3-5--00-0-10/3--00-0-8-7-3-5-|

Verse 1: (Repeat intro twice)

Pre-Chorus:

E:--------------------------------------------------------------|
B:-------------------6-5-6-10-------------------------6-5-6-10~-|
G:--10-9-10--10-9-10---------10-9-10-10-9-10--10-9-10-------7~--|
D:-0~------8~-------3~-----7~-------0~------8~-------3~-----7~--|
A:-0~------8~-------3~-----7~-------0~------8~-------3~-----7~--|
D:-0~------8~-------3~-----7~-------0~------8~-------3~-----7~--|

Chorus:

E:------------------------------------------------------------------|
B:------------------------------------------------------------------|
G:------------------------------------------------------------------|
D:-2-2--10-10-5~5~-9-9-10-10-12-12-9-9--2~-10~-5~-7-7-9-9-12-12-9-9-|
A:-2-2--10-10-5~5~-9-9-10-10-12-12-9-9--2~-10~-5~-7-7-9-9-12-12-9-9-|
D:-2-2--10-10-5~5~-9-9-10-10-12-12-9-9--2~-10~-5~-7-7-9-9-12-12-9-9-|

E:----------------------------------------------------------------|
B:----------------------------------------------------------------|
G:----------------------------------------------------------------|
D:-2-2--10-10-5~5~-7-7-9-9-12-12-9-9--2~-10~-5~-7-7-9-9-12-12-9-9-|
A:-2-2--10-10-5~5~-7-7-9-9-12-12-9-9--2~-10~-5~-7-7-9-9-12-12-9-9-|
D:-2-2--10-10-5~5~-7-7-9-9-12-12-9-9--2~-10~-5~-7-7-9-9-12-12-9-9-|

E:--------------------------------------------------|
B:--------------------------------------------------|
G:--------------------------------------------------|
D:-00-0-10/3--00-0-8-7-3-5--00-0-10/3--00-0-8-7-3-5-|
A:-00-0-10/3--00-0-8-7-3-5--00-0-10/3--00-0-8-7-3-5-|
D:-00-0-10/3--00-0-8-7-3-5--00-0-10/3--00-0-8-7-3-5-|

Verse 2:
E:--------------------------------------------------|
B:--------------------------------------------------|
G:--------------------------------------------------|
D:--------------------------------------------------|
A:--------------------------------------------------|
D:-00-0-10/3--00-0-8-7-3-5--00-0-10/3--00-0-8-7-3-5-|

E:--------------------------------------------------|
B:--------------------------------------------------|
G:--------------------------------------------------|
D:-00-0-10/3--00-0-8-7-3-5--00-0-10/3--00-0-8-7-3-5-|
A:-00-0-10/3--00-0-8-7-3-5--00-0-10/3--00-0-8-7-3-5-|
D:-00-0-10/3--00-0-8-7-3-5--00-0-10/3--00-0-8-7-3-5-|

Repeat Pre Chorus:

Repeat chorus

Solo After second chorus:

E:-------------------------------------------------|
B:-3-3--3-6/1--3-3--3-6/1--3-3--3-6/1--3-3--3-6/1--|
G:-------------------------------------------------|
D:-------------------------------------------------|
A:-------------------------------------------------|
D:-------------------------------------------------|

E:-5-5--5-8/3--5-5--5-8/3--5-5--5-8-3--5-5--5-8-3-|
B:-3-3--3-6/1--3-3--3-6/1--3-3--3-6/1--3-3--3-6/1-|
G:------------------------------------------------|
D:------------------------------------------------|
A:------------------------------------------------|
D:------------------------------------------------|

E:-5-5--5-8/3--5-5--5-8/3--5-5--5-8-3--5-5--5-8-3-|
B:-3-3--3-6/1--3-3--3-6/1--3-3--3-6/1--3-3--3-6/1-|
G:-2-2--2-5/0--2-2--2-5/0--2-2--2-5/0--2-2--2-5/0-|
D:------------------------------------------------|
A:------------------------------------------------|
D:------------------------------------------------|

Repeat the parts of the song as you see fit

God Bless you

Tabber: Robby Sheets
Band: Thousand Foot Krutch

PLEASE RATE!!!
Tap to rate this tab
 
# A B C D E F G H I J K L M N O P Q R S T U V W X Y Z