Song name
# A B C D E F G H I J K L M N O P Q R S T U V W X Y Z

Thousand Foot Krutch - Down tab

Thousand Foot Krutch
Down
Tabbed by JAKKRAB1T
Drop B

INTRO: 

  Part 1: (some sortof effect is added to the distortion during this part)


C#|--------------------|
G#|--------------------| (4x)
E |--------------------|
B |--------------------|
F#|--------------------|
B |-0-0--6--0-0-0h6-0--|

  Part 2: 

(now it's time to jam!)

C#|--------------------|
G#|--------------------| (4x)
E |--------------------|
B |-0-0--6--0-0-0h6-0--|
F#|-0-0--6--0-0-0h6-0--|
B |-0-0--6--0-0-0h6-0--|

VERSE: 

  repeat Part 1 of the Intro

  repeat Part 2 of the Intro (palm pute it this time)

PRE-CHORUS:

C#|--------------------|
G#|--------------------| (4x)
E |--------------------|
B |-0-0-2-3-------6-6--|
F#|-0-0-2-3-(3x)--6-6--|
B |-0-0-2-3-------6-6--|

CHORUS:

C#|---------------------------------------------------------|
G#|---------------------------------------------------------| (2x)
E |---------------------------------------------------------|
B |-0-0--0-0--0--8-8--8-8--8h10--5-5--5-5--5--7-7--7-7--3/2-|
F#|-0-0--0-0--0--8-8--8-8--8h10--5-5--5-5--5--7-7--7-7--3/2-|
B |-0-0--0-0--0--8-8--8-8--8h10--5-5--5-5--5--7-7--7-7--3/2-|

Repeat VERSE

Repeat PRE-CHORUS

Repeat CHORUS

BRIDGE:

  Part 1: Bass

  Part 2:

C#|--------------------------------|
G#|--------------------------------|
E |--------------------------------|
B |-0-0-3-0-0-3-0--0-0-3-0-6-5-3-0-|
F#|-0-0-3-0-0-3-0--0-0-3-0-6-5-3-0-|
B |-0-0-3-0-0-3-0--0-0-3-0-6-5-3-0-|

C#|--------------------------------|
G#|--------------------------------|
E |--------------------------------|
B |-0-0-3-0-0-3-0--0-0-3-0-6--5--3-|
F#|-0-0-3-0-0-3-0--0-0-3-0-6--5--3-|
B |-0-0-3-0-0-3-0--0-0-3-0-6--5--3-|

C#|--------------------------------|
G#|--------------------------------|
E |--------------------------------|
B |-0-0-3-0-0-3-0--0-0-3-0-6-5-3-0-|
F#|-0-0-3-0-0-3-0--0-0-3-0-6-5-3-0-|
B |-0-0-3-0-0-3-0--0-0-3-0-6-5-3-0-|

C#|--------------------------------|
G#|--------------------------------|
E |--------------------------------|
B |-0-0-3-0-0-3-0--0-0-3-0-6--5--3-|
F#|-0-0-3-0-0-3-0--0-0-3-0-6--5--3-|
B |-0-0-3-0-0-3-0--0-0-3-0-6--5--3-|

Repeat CHORUS (2x)

-------------------------------------------

h=hammer-on
/=slide
Tap to rate this tab
# A B C D E F G H I J K L M N O P Q R S T U V W X Y Z