Song name
# A B C D E F G H I J K L M N O P Q R S T U V W X Y Z

Thousand Foot Krutch - The End Is Where We Begin tab

Song: The End Is Where We Begin
Album: The End Is Where We Begin
Artist: Thousand Foot Krutch

PLEASE RATE!!!
Drop D
Intro:

E:-----------------------------------------|
B:-----------------------------------------|
G:--11-12-11-11-12-11-11-12-11-14-11-12-11-|
D:-9--------9--------9---------------------|
A:-----------------------------------------|
D:-----------------------------------------|

E:-----------------------------------------------------------------|
B:-----------------------------------------------------------------|
G:-----------------------------------------------------------------|      (X2)
D:-9-9--9-9-9--4-5-5--5-5-5--2-9-9--9-9-9--4-5-5--5-5-2-7-4-9------|
A:-9-9--9-9-9--4-5-5--5-5-5--2-9-9--9-9-9--4-5-5--5-5-2-7-4-9------|
D:-9-9--9-9-9--4-5-5--5-5-5--2-9-9--9-9-9--4-5-5--5-5-2-7-4-9------|

Verse 1 is just the second intro only playing the top D string. Start have way through
the first verse though.

(#) = palm mute
{#} = number of times you play it
Chorus:                                                      {6} {12} {8}
E:----------------------------------------------------------------------|
B:----------------------------------------------------------------------|
G:----------------------------------------------------------------------|
D:-0-0-9-9-9-7-5-5-5-5-7-7-7-7-0-0-0-9-9-9-7-5-5-5-5-7-7-7-7-(4)-(5)-(7)|
A:-0-0-9-9-9-7-5-5-5-5-7-7-7-7-0-0-0-9-9-9-7-5-5-5-5-7-7-7-7-(4)-(5)-(7)|
D:-0-0-9-9-9-7-5-5-5-5-7-7-7-7-0-0-0-9-9-9-7-5-5-5-5-7-7-7-7-(4)-(5)-(7)|

Repeat second intro

2nd verse is the same as the first verse.

Bridge:

E:-------------------------------------------------------------------|
B:-------------------------------------------------------------------|
G:-------------------------------------------------------------------|
D:9-9-9-12-12-12-8-8-8-7-7-7-10-10-10-9-9-9-12-12-12-8-8-8-7-7-7-4/9-|
A:9-9-9-12-12-12-8-8-8-7-7-7-10-10-10-9-9-9-12-12-12-8-8-8-7-7-7-4/9-|
D:9-9-9-12-12-12-8-8-8-7-7-7-10-10-10-9-9-9-12-12-12-8-8-8-7-7-7-4/9-|

You can fill in the rest.

God Bless
PLEASE RATE
Tap to rate this tab
 
# A B C D E F G H I J K L M N O P Q R S T U V W X Y Z