Song name
# A B C D E F G H I J K L M N O P Q R S T U V W X Y Z

Thousand Foot Krutch - So Far Gone tab

Hey this is my 1st tab on this website but im confident that this tabing is 100% right 
so dont worry. If u dont believe me play it urself. Its played in a d standard and it 
theres alot of picking. And if im wrong then correct me at warmanger16@gmail.com. ~GOD BLESS!!!~
~Intro/Verse~
D----------------------------0---0------------0-0-----1-1-0-0---|
A-1h3p1--1-1-1-1-3-1-3-1-----1---1------3-3-1-1-1-1-1-1-1-1-1---|
F------0-2-2-2-0-0-0-0-0-0h2-2---2------0-0-0-----2-2-------2---|
C--------2-2-2-0--------3----3-3---3------------------------3---|
G---------------------------------------------------------------|
D---------------------------------------------------------------|
~Chorus/Bridge~
D-------------------------------------------------------------------------|
A-------------------------------------------------------------------------|
F-0h2-4-5-5-5-5-5-5-5-5-5-------------------------------------------------|
C---------5-5-5-5-5-5-5-5-5-5-5-5-5-5-5-5-7-7-7-7-7-7-7-7-3-3-3-3-3-3-3-3-|
G---------3-3-3-3-3-3-3-3-5-5-5-5-5-5-5-5-7-7-7-7-7-7-7-7-3-3-3-3-3-3-3-3-|
D-------------------------3-3-3-3-3-3-3-3-5-5-5-5-5-5-5-5-1-1-1-1-1-1-1-1-|

Key:
h=hammer on
p=let off
Tap to rate this tab
# A B C D E F G H I J K L M N O P Q R S T U V W X Y Z