Song name
# A B C D E F G H I J K L M N O P Q R S T U V W X Y Z

Thousand Foot Krutch - Supafly tab

Help us improve GuitareTab! Take a short survey!
Tabbed by:THE SANDMAN
Email:ryan5@iamwasted.com

Tuning: drop d
E-----------------------------------------
B-----------------------------------------
G---7-6-------------7--4------------------
D-----------------------------------------
A-----------------------------------------
D-----------------------------------------

e------------------------------------------
b------------------------------------------
g----------------------------------------5-
D--0-0--3--0--6--6---0-0--3--0--3-0-3-0--5-
A--0-0--3--0--6--6---0-0--3--0--3-0-3-0--3-
D--0-0--3--0--6--6---0-0--3--0--3-0-3-0----

e-------------------------
b-------------------------
g-------------------------
D-------------------------
A--3-4-5-5-5--------------
D-------------------------

e---------------------------------------------------------------------
b---------------------------------------------------------------------
g--7-7-7-7-7-7----5-5-5-5-5-5-5---------------------------------------
D--7-7-7-7-7-7----5-5-5-5-5-5-5----5-5-5-5-5-5-5-----8-8-8-8-8-8-8-8-8
A--5-5-5-5-5-5----3-3-3-3-3-3-3----5-5-5-5-5-5-5-----8-8-8-8-8-8-8-8-8
D----------------------------------5-5-5-5-5-5-5-----8-8-8-8-8-8-8-8-8
Related for Supafly tab