Song name
# A B C D E F G H I J K L M N O P Q R S T U V W X Y Z

Thousand Foot Krutch - Up Comes Down tab

---------------------------------------------------------------------        
        "Up Comes Down" By: Thousand Foot Krutch
---------------------------------------------------------------------

Tabbed by: Jesse D.

Intro
W/Tremello
E|---------------------------------10-----|
B|---------------------------------10-----|
G|----------------------------------------|
D|----------------------------------------|
A|----------------------------------------|
D|----------------------------------------|


Intro Pt. 2
Heavy Distortion
E|-----------------------------------------|
B|-----------------------------------------|
G|-----------------------------------------|
D|-0-2-0-3-0-2-0-3-0h2h3-0-2-0-3-0-2-0-6>6>|
A|-0-2-0-3-0-2-0-3-0h2h3-0-2-0-3-0-2-0-6>6>|
D|-0-2-0-3-0-2-0-3-0h2h3-0-2-0-3-0-2-0-6>6>|


E|-----------------------------------------|
B|-----------------------------------------|
G|-----------------------------------------|
D|-0-2-0-3-0-2-0-3-0h2h3-0-2-0-3-0-2-0-665-|
A|-0-2-0-3-0-2-0-3-0h2h3-0-2-0-3-0-2-0-665-|
D|-0-2-0-3-0-2-0-3-0h2h3-0-2-0-3-0-2-0-665-|



E|-----------------------------------------|
B|-----------------------------------------|
G|-----------------------------------------|
D|-0-2-0-3-0-2-0-3-0h2h3-0-2-0-3-0-2-0-6>6>|
A|-0-2-0-3-0-2-0-3-0h2h3-0-2-0-3-0-2-0-6>6>|
D|-0-2-0-3-0-2-0-3-0h2h3-0-2-0-3-0-2-0-6>6>|


E|-----------------------------------------|
B|-----------------------------------------|
G|-----------------------------------------|
D|-0-2-0-3-0-2-0-3-0h2h3-0-2-0-3-0-2-0-665-|
A|-0-2-0-3-0-2-0-3-0h2h3-0-2-0-3-0-2-0-665-|
D|-0-2-0-3-0-2-0-3-0h2h3-0-2-0-3-0-2-0-665-|


Verse 1 W/Tremello
(let all notes ring)
E|----------------------------------------|
B|----------------------------------------|
G|----------------------------------------|
D|----7-----(7)/9\5-------0-2---------2/3-|
A|----------------------------------------|
D|----------------------------------------|


E|----------------------------------------|
B|----------------------------------------|
G|----------------------------------------|
D|(3)/7-----(7)/9\5-------0-2---------2/3-|
A|----------------------------------------|
D|----------------------------------------|


Chorus 1
Heavy Distortion
E|--------------------------------|
B|--------------------------------|
G|--------------------------------|
D|-0--0-0-0--0-0-0--0-0-3333/5555-|
A|-0--0-0-0--0-0-0--0-0-3333/5555-|
D|-0--0-0-0--0-0-0--0-0-3333/5555-|
PM *  * * *  * * *  * * 


E|--------------------------------|
B|--------------------------------|
G|--------------------------------|
D|-0--0-0-0--0-0-0--0-0-5555\3333-|
A|-0--0-0-0--0-0-0--0-0-5555\3333-|
D|-0--0-0-0--0-0-0--0-0-5555\3333-|
PM *  * * *  * * *  * * 


E|--------------------------------|
B|--------------------------------|
G|--------------------------------|
D|-0--0-0-0--0-0-0--0-0-3333/5555-|
A|-0--0-0-0--0-0-0--0-0-3333/5555-|
D|-0--0-0-0--0-0-0--0-0-3333/5555-|
PM *  * * *  * * *  * * 


E|--------------------------------|
B|--------------------------------|
G|--------------------------------|
D|-0--0-0-0--0-0-0--0-0-5555\3333-|
A|-0--0-0-0--0-0-0--0-0-5555\3333-|
D|-0--0-0-0--0-0-0--0-0-5555\3333-|
PM *  * * *  * * *  * * 

Repeat Intro Pt. 2


(let ring)
E|------|
B|------|
G|------|
D|-0----|
A|-0----|
D|-0----|


Verse 2
Heavy Distortion
E|-----------------------------|
B|-----------------------------|
G|-----------------------------|
D|-(0)------0-0-0-0---00-0-0-0-|
A|-(0)------0-0-0-0---00-0-0-0-|
D|-(0)------0-0-0-0---00-0-0-0-|
PM          * * * *   ** * * *
                  

E|-----------------------------------------------|
B|-----------------------------------------------|
G|-----------------------------------------------|
D|-0-0-0-0--3-3--0-0-0-0--3-3--0-0-0-0--0>0>3/10-|
A|-0-0-0-0--3-3--0-0-0-0--3-3--0-0-0-0--0>0>3/10-|
D|-0-0-0-0--3-3--0-0-0-0--3-3--0-0-0-0--0>0>3/10-|x4
PM * * * *       * * * *
FM          * *           * *


Chours 2
Heavy Distortion
E|--------------------------------|
B|--------------------------------|
G|--------------------------------|
D|--------------------------------|
A|--------------------------------|
D|-0--0-0-0--0-0-0--0-0-3333/5555-|
PM *  * * *  * * *  * * **** ****  


E|--------------------------------|
B|--------------------------------|
G|--------------------------------|
D|--------------------------------|
A|--------------------------------|
D|-0--0-0-0--0-0-0--0-0-5555\3333-|
PM *  * * *  * * *  * * **** ****  


E|--------------------------------|
B|--------------------------------|
G|--------------------------------|
D|-0--0-0-0--0-0-0--0-0-3333/5555-|
A|-0--0-0-0--0-0-0--0-0-3333/5555-|
D|-0--0-0-0--0-0-0--0-0-3333/5555-|
PM *  * * *  * * *  * * 


E|--------------------------------|
B|--------------------------------|
G|--------------------------------|
D|-0--0-0-0--0-0-0--0-0-5555\3333-|
A|-0--0-0-0--0-0-0--0-0-5555\3333-|
D|-0--0-0-0--0-0-0--0-0-5555\3333-|
PM *  * * *  * * *  * * 


Bridge
Heavy Distortion
E|-------------------------------------------|
B|--------33---------33---------33-----------|
G|--------22---------22---------22-----------|
D|-0-0--0-00--0-0--0-00--0-0--0-00-3333/5555-|
A|-0-0--0-00--0-0--0-00--0-0--0-00-3333/5555-|
D|-0-0--0-00--0-0--0-00--0-0--0-00-3333/5555-|


E|-------------------------------------------|
B|--------33---------33---------33-----------|
G|--------22---------22---------22-----------|
D|-0-0--0-00--0-0--0-00--0-0--0-00-5555\3333-|
A|-0-0--0-00--0-0--0-00--0-0--0-00-5555\3333-|
D|-0-0--0-00--0-0--0-00--0-0--0-00-5555\3333-|


E|--------------------------------------|
B|--------------------------------------|
G|--------------------------------------|
D|----------------------------------6>6>|
A|----------------------------------6>6>|
D|-0-2-0-3-0-2-0-3-023-0-2-0-3-0-2--6>6>|
PM * * * * * * * * *** * * * * * *


Repeat Intro Pt. 2

End
Tap to rate this tab
 
# A B C D E F G H I J K L M N O P Q R S T U V W X Y Z