Song name
# A B C D E F G H I J K L M N O P Q R S T U V W X Y Z

Thousand Foot Krutch - Last Words tab

Intro/Verse 2x      
|--------------------------------|--------------------------------|
|--------------------------------|--------------------------------|
|--------------------------------|--------------------------------|
|----------------4-2-0-----------|----------------4-2-0-----------|
|2-2-0-2-2-0-2-2-------0-2-2-0-2-|2-2-0-2-2-0-2-2-------0-2-2-0-2-|
|--------------------------------|--------------------------------|

Bass Intro          
|-------------3x-----------------|---------4th-Time-and Verse-----|
|--------------------------------|--------------------------------|
|--------11------------------9---|------7-6-----6---7-------------|
|9-9---9-----9-11--12--7-------7-|9-9---------4---------7-----7-9-|
|--------------------------------|--------------------------9-----|
|--------------------------------|--------------------------------|

Repeat Bass Second Half 4x for Verse Then Add Intro Guitar 1x

Chorus       
|--------------------------------|--------------------------------|
|--------------------------------|--------------------------------|
|--------------------------------|--------------------------------|
|4---9---x-x-x-x-9---9---7-7-7-10|----2---x-x-x-x-2---2---4-x-x-4-|
|4---9---x-x-x-x-9---9---7-7-7-10|----2---x-x-x-x-2---2---4-x-x-4-|
|4---9---x-x-x-x-9---9---7-7-7-10|----2---x-x-x-x-2---2---4-x-x-4-|
        
|--------------------------------|--------------------------------|
|--------------------------------|--------------------------------|
|----------------11--12--9-------|9-9-9-9-9-9-9-9-9-9-9-9-9-9-9-9-|
|----9---x-x-x-x-x----x--x-------|x-x-x-x-x-x-x-x-8-8-8-8-8-8-8-8-|
|----9---x-x-x-x-9---10--7-------|7-7-7-7-7-7-7-7-7-7-7-7-7-7-7-7-|
|----9---x-x-x-x-----------------|----------------8-8-8-8-8-8-8-8-|

Repeat Intro-Verse-Chorus
 
Bridge       
|--------------------------------|--------------------------------|
|----3-------3-------3-----0---0-|----3-------3-------3-----0---0-|
|--4---4---4---4---4---4-----3---|--4---4---4---4---4---4-----3---|
|--------2---------------4-------|--------2---------------4-------|
|2---------------0---------------|2---------------0---------------|
|--------------------------------|--------------------------------|
       
|--------------------------------|--------------------------------|
|--------------------------------|--------------------------------|
|--------------------------------|--------------------------------|
|9---9---x-x---x-2---2---x-x---x-|7---7---x-x---x-4---4---8---8---|
|9---9---x-x---x-2---2---x-x---x-|7---7---x-x---x-4---4---9---9---|
|9---9---x-x---x-2---2---x-x---x-|7---7---x-x---x-4---4---8---8---|
   
|--------------------------------|--------------------------------|
|--------------------------------|--------------------------------|
|--------------------------------|--------------------------------|
|9---9---x-x---x-2---2---x-x---x-|7---7---x-x---x-4---------7---7-|
|9---9---x-x---x-2---2---x-x---x-|7---7---x-x---x-4---------7---7-|
|9---9---x-x---x-2---2---x-x---x-|7---7---x-x---x-4---------7---7-|

Repeat Chorus
 
Tap to rate this tab
# A B C D E F G H I J K L M N O P Q R S T U V W X Y Z